Mat Kearney Tabs

Call Me

1 versions

TAB

            -------------------------------------------------------------------------------
			     Call Me - Mat Kearney                         
-------------------------------------------------------------------------------
Tabbed by:Relientk_v_fan
Email:

Tuning:Full Step Down

  Intro
D|---------------------------------------------------------------------------|
A|---2-----2--0h2-3-2------2-----2--0h2-2-3-2-3--7---7--5---5--0---0--5------|
F|---------------------------------------------------------------------------|
C|---0--0--0--0------------0--0--0--0------------0--0---0--0---0--0---0------|
G|---------------------------------------------------------------------------|
D|---------------------------------------------------------------------------|

Verse x2
D|---------------------------------------------------------------------------|
A|---2-----2--0h2-3-2------2-----2--0h2-----2-----2--0h2-3-2-3---------------|
F|---------------------------------------------------------------------------|
C|---0--0--0--0------------0--0--0--0-------0--0--0--0-----------------------|
G|---------------------------------------------------------------------------|
D|---------------------------------------------------------------------------|


D|---------------------------------------------------------------------------|
A|--7---7--5---5--0---0--5---------------------------------------------------|
F|---------------------------------------------------------------------------|
C|--0--0---0--0---0--0---0---------------------------------------------------|
G|---------------------------------------------------------------------------|
D|---------------------------------------------------------------------------|

  Chorus x 6
D|---5-----5-4-----4-4-----4-5----5------------------------------------------|
A|-------5-------5-------5------5--------------------------------------------|
F|---------------------------------------------------------------------------|
C|---0-0-----0-0-----0-0-----0-0---------------------------------------------|
G|---------------------------------------------------------------------------|
D|---------------------------------------------------------------------------|

    Verse x2
    Chorus x4

  Riff after the second chorus  "These scars upon my..." () on the last one
D|---------------------------------------------------------------------------|
A|--5---5-0---0-0--0-2---2p0-------------------------------------(2)---------|
F|----------------------------------X4---------------------------------------|
C|--0-0---0-0---0-0--0-0-----------------------------------------(0)---------|
G|---------------------------------------------------------------------------|
D|---------------------------------------------------------------------------|

  Chorus X6


That's it. Hope you enjoy it. Please any questions, corrections, or comments and God Bless    

Added On December 16th, 2013

SHARE

Comments

blog comments powered by Disqus

ADVERTISEMENT