Matches Tabs

Little Maggots

2 versions

TAB

            Little Maggots Tab by Matches


Oh sorry... I thought This was a bass tab...
Apperently it's not though... I mean it is...
But it's under Guitar tabs... I dunno...
I'll leave it anyway... Oh and I put up this same thing
under a bass tab... yeah...
G|------|
D|------|
A|------|x16
E|00-5h7|

G|----------------------------------------|
D|----------------------------------------|
A|----------------------------------------|
E|55555555-77777777-55555555-77777777-5\\\|

G|----------------------------------------------------------------------|
D|----------------------------------------------------------------------|
A|-----------------00000000-22222222-------------------00000000-22222/2/|
E|00000000-22222222------------------00000000-22222222------------------|

G|------------------------------------------|
D|------------------------------------------|
A|---------------------------2-2-2-2-2-2-2-2|
E|33333333-55555555-55555555----------------|

G|------|
D|------|
A|------|x7
E|00-5h7|

G|---------------------------------------------------------------|
D|----------------------------54---------------------------------|
A|3-3-3-3---------3-3-3-3-------54-3-3-3-3---------3-3-3-3-------|
E|--------3-3-3-3---------3-3--------------3-3-3-3---------3-3~//|

G|-----------------------------------|
D|---------22222222----------22222222|
A|22222222----------22222222---------|
E|-----------------------------------|

G|--------------------|
D|--5---5--5---5---5--|
A|--------------------|
E|3--33--3---3---3--2~|

G|------------------|
D|------------------|
A|------------------|
E|5\\\\\\\\5\\\\\\\\|

G|----------------------------------------------------------------------|
D|----------------------------------------------------------------------|
A|-----------------00000000-22222222-------------------00000000-22222/2/|
E|00000000-22222222------------------00000000-22222222------------------|

G|---------------------------------------|
D|---------------------------------------|
A|---------------------------2-2/15151515|
E|33333333-55555555-55555555-------------|

G|-----------------------------------|
D|-----------------------------------|
A|33333333----------55555555---------|
E|---------33333333----------55555555|

G|----------|
D|----------|
A|----------|
E|5\\\-55\\\|

G|-------------------|
D|-------------------|
A|-------------------|
E|5~-7~-5~-7~-5\\\\\\|


G|----------------------------------------------------------------------|
D|----------------------------------------------------------------------|
A|-----------------00000000-22222222-------------------00000000-22222222|
E|00000000-22222222------------------00000000-22222222------------------|

G|-------------------------------------------------|
D|-------------------------------------------------|
A|---------------------------2-2-2-2/14-14-14141414|
E|33333333-55555555-55555555-----------------------|

G|------|
D|------|
A|------|x8
E|00-5h7|

G|-------------------------------------------|
D|-------------------------------------------|
A|33333333----------33333333-1010101010101010|
E|---------33333333--------------------------|

G|-----------------------------------|
D|-----------------------------------|
A|33333333----------33333333-------11|
E|---------33333333----------334455--|

G|-------------------------------------------|
D|-------------------------------------------|
A|22222222-77777777-1414141414141414-77777777|
E|-------------------------------------------|

G|------------------|
D|-5-5-5-5-5-5-5-5--|
A|------------------|
E|3-3-3-3-3-3-3-3-2~|

Hmph... you could just play power chords?
~**awfulGoodness**~    

Added On December 5th, 2013

SHARE

Comments

blog comments powered by Disqus

VERSIONS

ADVERTISEMENT