Matches Tabs

To Build A Mountain

1 versions

TAB

            Band: The Matches
Song: To Build A Mountain
Tabbed by: Alan
Tuning: Standard

Used the youtube video from live-pulse.com and the cd version to tab this, they
are pretty much the same.  Only did one guitar, might do the other in time cause
they sound amazing together.  Questions, corrections, additions, just let me know.  
Enjoy.


Play x3 except first time play x4.
e|---------------------------------------------------------------------------|
B|---------------------------------------------------------------------------|
G|--------6--4---0-----------6--4---0----------------------------------------|
D|------6------6---6-------6------6------------------------------------------|
B|----7-----------------7----------------------------------------------------|
E|--0-----------------0------------------------------------------------------|

   "Go ask the frog..."                                      
e|-------------------------0--------0----------------------------------------|
B|------2--------2-----------4--------4------4--------4---------7-5--4--4----|
G|--------2--------2---------------------------4--------4-----4--------------|
D|----2--------2---------2--------2--------4--------4-------4----------------|
A|--0--------0---------0--------0--------2--------2--------------------------|
E|---------------------------------------------------------------------------|
                                                        
                                            Hold the final "2" for a second or two
                                            before starting the next bar
e|--0-----------------------0----------------2-------------------------------|
B|----2-----------2-------2---2------------4---4-------2---------------------|
G|------2-------2-------3-------3--------4-------4---------4---2---1---------|
D|--------2---2-------2-----------2----4-----------4-----4---4---4---4-------|
A|----------0-------1----------------2---------------------------------------|
E|----------------------------------------------------------------------2----|
 
 Start this bar on "tain" of "mountain"
e|---------------------------------------------------------------------------|
B|------------0---0---0---0---------1---------------1---------------2-------2|
G|-------2--4---2---1-------------1---1-----------1---1-----------2---2-----2|
D|-----4----------------4-------1-------1-------1-------1-------2-------2---2|
A|---4------------------------3-----------3---3-----------3---4-----------4-4|
E|-2------------------------4---------------4---------------5---------------5|

The third time through play the last chord 4x and add in pauses and muted strums
e|--xx-xx--------------------------------------------------------------------|
B|--xx-xx---------------1111--------2222-------------------------------------|
G|--xx-xx---------------1111--------2222-------------------------------------|
D|--xx-xx----6666-------1111--------2222-------------------------------------|
A|--xx-xx----7777-(x4)--3333-(x4)---4444-(x3)--------------------------------|
E|--xx-xx---------------4444--------5555-------------------------------------|

Play everything above 3 times then play the following:
   
  Outro
e|--0000-------------------------------0000-------2222-------2---------------|
B|--0000-------------------------------0000-------0000-------0---------------|
G|--1111-------------------------------3333-------2222-------2---------------|
D|--2222-------6666--------7777--------2222-(x2)--1111-(x2)--1---------------|
A|--2222-(x2)--7777-(x2)---7777-(x2)---1111-------2222-------2---------------|
E|--0000-------4444--------5555----------------------------------------------|

e|---------------------------------------------------------------------------|
B|---------------------------------------------------------------------------|
G|---------6---4----0--------------------------------------------------------|
D|-------6--------6---6------------------------------------------------------|
A|-----7-------------------------7-------------------------------------------|
E|---0--------------------------0--------------------------------------------|

| x  Mute note
| (x?) Indicates # of times to play    

Added On December 16th, 2013

SHARE

Comments

blog comments powered by Disqus

ADVERTISEMENT