Matt Pond PA Tabs

Measure 5

1 versions

TAB

            Measure 5 Tab by Matt Pond Pa


Title:  'Measure 5'
Artist: matt pond PA (mattpondpa.com)
Album:  I Thought You Were Sleeping
Tabbed by Jorge Díaz (j_diaz_s@yahoo.com)


 Intro:

E -----------------|
B -----------------|
G -------0---------|
D -2-3-2---2-3-(2)-|
A -----------------|
E -----------------|

E ---------------------------------|       E ------------|
B ---------------------------------|       B ------------|
G -0-0-0-0-0-0-0-0-0-0-0-0-0-0-0-0-|       G -0-0-0--0-0-|
D -2-2-2-2-3-3-3-3-5-5-5-5-7-7-7-7-| (x3)  D -2h3-0--3-0-|
A ---------------------------------|       A ------------|
E ---------------------------------|       E ------------|


 Verse 1: (0:18)

E ------------------------------------------------------------------|
B ------------------------------------------------------------------|
G -0-0-0-0-0-0-0-0-0-0-0-0-0-0-0-0--0-0-0-0-0-0-0-0-0-0-0-0-0-0-0-0-|
D -2-2-2-2-3-3-3-3-5-5-5-5-7-7-7-7--2-2-2-2-3-3-3-3-5-5-5-5-7-7-7-7-|
A ------------------------------------------------------------------|
E ------------------------------------------------------------------|
 the clearing                is to the brightness             as the

E ----------------------------------------------|
B ----------------------------------------------|
G -0-0-0-0-0-0-0-0-0-0-0-0-0-0-0-0---0-0-0--0-0-|
D -2-2-2-2-3-3-3-3-5-5-5-5-7-7-7-7---2h3-0--3-0-|
A ----------------------------------------------|
E ----------------------------------------------|
  nearing                   is to far,     too far

E ------------------------------------------------------------------|
B ------------------------------------------------------------------|
G -0-0-0-0-0-0-0-0-0-0-0-0-0-0-0-0--0-0-0-0-0-0-0-0-0-0-0-0-0-0-0-0-|
D -2-2-2-2-3-3-3-3-5-5-5-5-7-7-7-7--2-2-2-2-3-3-3-3-5-5-5-5-7-7-7-7-|
A ------------------------------------------------------------------|
E ------------------------------------------------------------------|
 we both   stand up        swallowed by these fast trees     running

E ----------------------------------------------|
B ----------------------------------------------|
G -0-0-0-0-0-0-0-0-0-0-0-0-0-0-0-0---0-0-0--0-0-|
D -2-2-2-2-3-3-3-3-5-5-5-5-7-7-7-7---2h3-0--3-0-|
A ----------------------------------------------|
E ----------------------------------------------|
 beside us               we couldn't leave the ground



 Chorus: (0:51)

E --------------------------------------(1)(1)(1)--|
B -------------------------------------------------|
G --5--2--0-----0--0--0--0--0--0--0--0--0--0--0----|
D -----------3--0--0--0--0--2--2--2--2--3--3--3----|
A -------------------------------------------------|
E -------------------------------------------------|
                 we'll clear the rocks up from the road

E --------------------------------------(1)(1)(1)--|
B -------------------------------------------------|
G --5--2--0-----0--0--0--0--0--0--0--0--0--0--0----|
D -----------3--0--0--0--0--2--2--2--2--3--3--3----|
A -------------------------------------------------|
E -------------------------------------------------|
                 i'll tell you what you want to know


  (1:07)

E ---------------------------------|       E ------------|
B ---------------------------------|       B ------------|
G -0-0-0-0-0-0-0-0-0-0-0-0-0-0-0-0-|       G -0-0-0--0-0-|
D -2-2-2-2-3-3-3-3-5-5-5-5-7-7-7-7-| (x3)  D -2h3-0--3-0-|
A ---------------------------------|       A ------------|
E ---------------------------------|       E ------------|


 Verse 2: (1:23)

E ------------------------------------------------------------------|
B ------------------------------------------------------------------|
G -0-0-0-0-0-0-0-0-0-0-0-0-0-0-0-0--0-0-0-0-0-0-0-0-0-0-0-0-0-0-0-0-|
D -2-2-2-2-3-3-3-3-5-5-5-5-7-7-7-7--2-2-2-2-3-3-3-3-5-5-5-5-7-7-7-7-|
A ------------------------------------------------------------------|
E ------------------------------------------------------------------|
 we're holing              back of the payload              watch the wind

E ----------------------------------------------|
B ----------------------------------------------|
G -0-0-0-0-0-0-0-0-0-0-0-0-0-0-0-0---0-0-0--0-0-|
D -2-2-2-2-3-3-3-3-5-5-5-5-7-7-7-7---2h3-0--3-0-|
A ----------------------------------------------|
E ----------------------------------------------|
  growing                    as the sky    stays still

E ------------------------------------------------------------------|
B ------------------------------------------------------------------|
G -0-0-0-0-0-0-0-0-0-0-0-0-0-0-0-0--0-0-0-0-0-0-0-0-0-0-0-0-0-0-0-0-|
D -2-2-2-2-3-3-3-3-5-5-5-5-7-7-7-7--2-2-2-2-3-3-3-3-5-5-5-5-7-7-7-7-|
A ------------------------------------------------------------------|
E ------------------------------------------------------------------|
 and we both look down     out onto these tall trees         running

E ----------------------------------------------|
B ----------------------------------------------|
G -0-0-0-0-0-0-0-0-0-0-0-0-0-0-0-0---0-0-0--0-0-|
D -2-2-2-2-3-3-3-3-5-5-5-5-7-7-7-7---2h3-0--3-0-|
A ----------------------------------------------|
E ----------------------------------------------|
 beside us                  where we'll lie we'll lie



 Chorus: (1:55)

E --------------------------------------(1)(1)(1)--|
B -------------------------------------------------|
G --5--2--0-----0--0--0--0--0--0--0--0--0--0--0----|
D -----------3--0--0--0--0--2--2--2--2--3--3--3----|
A -------------------------------------------------|
E -------------------------------------------------|
                 we'll clear the rocks up from the road

E --------------------------------------(1)(1)(1)--|
B -------------------------------------------------|
G --5--2--0-----0--0--0--0--0--0--0--0--0--0--0----|
D -----------3--0--0--0--0--2--2--2--2--3--3--3----|
A -------------------------------------------------|
E -------------------------------------------------|
                 i'll tell you what you want to know


  (2:12)

E -------------------------------|
B -------------------1-----------|
G -0--0--0-----2-0-----2-2--3----|
D -0--2--3---------3----------3--| (x2)
A ----------1--------------------|
E -------------------------------|


 Chorus: (2:28)

E --------------------------------------(1)(1)(1)--|
B -------------------------------------------------|
G --5--2--0-----0--0--0--0--0--0--0--0--0--0--0----|
D -----------3--0--0--0--0--2--2--2--2--3--3--3----|
A -------------------------------------------------|
E -------------------------------------------------|
                 we'll clear the rocks up from the road

E --------------------------------------(1)(1)(1)--|
B -------------------------------------------------|
G --5--2--0-----0--0--0--0--0--0--0--0--0--0--0----|
D -----------3--0--0--0--0--2--2--2--2--3--3--3----|
A -------------------------------------------------|
E -------------------------------------------------|
                 i'll tell you what you want to know


  (2:47)

E --------------------------------------(1)(1)(1)--|
B -------------------------------------------------|
G --5--2--0-----0--0--0--0--0--0--0--0--0--0--0----|
D -----------3--0--0--0--0--2--2--2--2--3--3--3----|
A -------------------------------------------------|
E -------------------------------------------------|
                 we bottomed out on the soft shoulder

E ------------------------------------------------|
B ------------------------------------------------|
G --5--2--0-----0--0--0--0--0--0--0--0--0--0------|
D -----------3--0--0--0--0--2--2--2--2--3--3------|
A ------------------------------------------------|
E ------------------------------------------------|
                 remember the lines that you told her    

Added On December 5th, 2013

SHARE

Comments

blog comments powered by Disqus

ADVERTISEMENT