Max Milner Tabs

All Our Lives Needy Me

1 versions

TAB

            -------------------------------------------------------------------------------
                             Alle our lives (Needy me) - Max Milner
-------------------------------------------------------------------------------
Tabbed by: Yyzei
E-mail: santtux8@gmail.com

Tuning: Standard

These are the main parts of the song. Listen the structure and the rhythm of the strumming parts.

Verse

e|---------------------------------------------------------------------------|
B|---------------------------------------------------------------------------|
G|------------------------------------------------2-2------------------------|
D|-2-2--2h4p2-4s6-4-2----2-2--2h4p2-6-6s7-4-------2-2-4s6-4p2-4p2------------|
A|-2---------------------2-----------------2----4---4-------------2h4--------|
E|-0---------------------0---------------------------------------------------|

e|--------------2s4-2----------|                       
B|------------5----------------|
G|---2-2--4h6------------------|
D|---2-2-----------------------|   
A|-0---0-----------------------|
E|-----------------------------|

Pre-chorus

e|---------------             ------------------|             e|-0--0---|
B|--------------- Then Chorus ------------------| And Bridge  B|-1--0---|
G|-2--4----------             ----2--6--4-------|             G|-2--1---|
D|-2--4----------             -2--2--6--4-------|             D|-2--2---|
A|-0--2----------             -2--0--4--2-------|             A|--------|
E|---------------             -0----------------|             E|--------|

The ending

e|-------------------0------|
B|--5----------------0------|
G|----4-6--4---------1------|
D|-----------4-6-4---2------|
A|-------------------2------|
E|-------------------0------|


************************************

| /   slide up
| \   slide down
| h   hammer-on
| p   pull-off
| ~   vibrato
| +   harmonic
| x   Mute note
| b   Bend
| pb  Pre-bend
| br  Bend release
| pbr Pre-bend release
| brb Bend release bend

************************************    

Added On June 21st, 2014

SHARE

Comments

blog comments powered by Disqus

ADVERTISEMENT