Me And Mark Tabs

Waiting

1 versions

TAB

            Intro

e|----------------------------------------|
B|----------------------------------------|
G|-----9----------------------------------|
D|---9---9-----9--------11---------7------|
A|-7---------9---9---11----------7---7----|
E|---------7-------9---------5------------|


e|----------------------------------------|
B|----------------------------------------|
G|-----9----------------------------------|
D|---9---9-----9--------11---7------------|
A|-7---------9---9---11------7------------|
E|---------7-------9---------5------------|



 Verse
 
e|------------------------------------------------|
B|------------------------------------------------|
G|-----------4-4-4-44--6-6-6--66------------------|
D|-2-2-2-22--2-2-2-22--6-6-6--66--7-7-7-7-7-------|
A|-2-2-2-22--2-2-2-22--4-4-4--44--7-7-7-7-7-------|
E|-0-0-0-00-----------------------5-5-5-5-5-------|3x


e|------------------------------------------------|
B|------------------------------------------------|
G|-----------4-4-4-44--6-6-6--66------------------|
D|-2-2-2-22--2-2-2-22--6-6-6--66--7---------------|
A|-2-2-2-22--2-2-2-22--4-4-4--44--7---------------|
E|-0-0-0-00-----------------------5---------------|

e|------------------------------------------------|
B|------------------------------------------------|
G|-----------4-4-4-44--6-6-6--66------------------|
D|-2-2-2-22--2-2-2-22--6-6-6--66--7-7-7-7-7-------|
A|-2-2-2-22--2-2-2-22--4-4-4--44--7-7-7-7-7-------|
E|-0-0-0-00-----------------------5-5-5-5-5-------|3x


e|--------------------------------xxxxxx-|
B|--------------------------------xxxxxx-|
G|-----------4-4-4-44--6-6-6-6-6--xxxxxx-|
D|-2-2-2-22--2-2-2-22--6-6-6-6-6--xxxxxx-|
A|-2-2-2-22--2-2-2-22--4-4-4-4-4--xxxxxx-|
E|-0-0-0-00-----------------------xxxxxx-|

Chorus
  
The same chords    

Added On December 16th, 2013

SHARE

Comments

blog comments powered by Disqus

ADVERTISEMENT