Mew Tabs

Circuitry Of The Wolf

2 versions

TAB

            Circuitry Of The Wolf Tab by Mew


Band: Mew
Album: Mew And The Glass Handed Kites
Song: Circuitry Of The Wolf


A-piece
e|------------------------------------------------------|
B|------------------------------------------------------|
G|------------------------------------------------------|
D|------------------------------------------------------|
A|------------------------------------------------------|
E|--7-7-7-7/9-9/11-11-11-11/9-9/12-12-12-12/16-16-16-16-|

B-piece
e|-----------------------------------------------------|
B|-----------------------------------------------------|
G|-----------------------3-----------------------------|
D|----------------------5------------------------------|
A|---------------------3-------------------------------|
E|--0/0-0/0-0-0-0/0-0----------------------------------|

Thats kinda it, except for some licks on the E string.

Tabbed by: Stev.    

Added On December 5th, 2013

SHARE

Comments

blog comments powered by Disqus

VERSIONS

ADVERTISEMENT