Michael Hutchence Tabs

The Passenger

1 versions

TAB

            Title: The Passenger
Artist: Michael Hutchence (www.michaelhutchence.org/ )

This a cover of Iggy pop song : The Passenger, of the ost "Batman Forever"

Tempo = 80


Main Guitar:

intro :

E ||---------------------------------------------------|
B ||---------------------------------------------------|
G ||o--------------------------------------------------|
D ||o--------------------------------------------------|
A ||-------------6-------------------------------------|
D ||-6--6-----6--------6-----------6--9--9--9--9-------|


---------------------------------------------------||
---------------------------------------------------||
--------------------------------------------------o||
--------------------------------------------------o||     x2
--------------6------------------------------------||
--6--6-----6--------6-----2-----------4------------||


E ||------|-------|-------|------||
B ||------|-------|-------|------||
G ||o-----|-------|-------|-----o||
D ||o-----|-------|-------|-----o||
A ||------|-------|-------|------||
D ||-6----|--9----|--8----|--7---||     x2


Main Riff : 

E |----------------------------------------------------|
B |----------------------------------------------------|
G |----------------------------------------------------|
D |----------------------------------------------------|
A |----------------------------------------------------|
D |--6--6--6--6--6-----6-----6-----6-----9-------------|


----------------------------------------------------|
----------------------------------------------------|
----------------------------------------------------|
----------------------------------------------------|
----------------------------------------------------|
--6--6--6--6--6-----6-----6-----6-----7-----4-------|


----------------------------------------------------|
----------------------------------------------------|
----------------------------------------------------|
----------------------------------------------------|
----------------------------------------------------|
--6--6--6--6--6-----6-----6-----6-----11------------|


----------------------------------------------------||
----------------------------------------------------||
----------------------------------------------------||
----------------------------------------------------||
----------------------------------------------------||
--6--6--6--6--6-----6-----2-----------4-------------|| Play this all the song    

Added On December 16th, 2013

SHARE

Comments

blog comments powered by Disqus

ADVERTISEMENT