Michael Learns To Rock Tabs

Complicated Heart

2 versions

TAB

            Complicated Heart Tab by Michael Learns To Rock


-------------------------------------------------------------------------------
			     Complicated Heart-Michael Learns To Rock
-------------------------------------------------------------------------------
Tabbed by:JeffKamungu	
Email:geoffykom@yahoo.com

Tuning:Standard

e|-------------3--|-------------|-----------------|------3----2--------------|
B|--1/3-----1-----|--1/3----3---|--0----1----3/5--|------3--------3----------|
G|--2/4----0------|---------0---|-----------------|--------------------------|
D|--0-----2-------|--2/4--------|-----------------|--0-----------------------|
A|-------3--------|-------------|-------0----2/3--|-------------------0------|
E|----------------|---------3---|--3--------------|--------------------------|
                                      Don' know what to say now.....
                                          D           C
e|--3-------------|--3-------------|--2--3--2--|--3--------------------------|
B|--3---3-1---0---|--3-------------|--3-------3|--3--1-----3---1------0-----|
G|--0-------0-----|--0-------------|--2--------|--0-----0---------0----------|
D|--2-------------|--0-----0--2--0-|--0--------|--2--------------------------|
A|--3-------------|--2--2----------|-----------|--3--------------------------|
E|----------------|--3-------------|-----------|-----------------------------|
             G                   D                     C
e|--3---------3--2--------|--2--------2-------|------------------------------|
B|--3---3-----------3-----|--3--3-------3-----|-------1-----3---1-----0------|
G|--0------0-----------2--|--2-----2------2---|----------0---------0---------|
D|--0---------------------|--0----------------|-----2-----------------------|
A|--2---------------------|-------------------|--3---------------------------|
E|--3---------------------|-------------------|------------------------------|
                                 you tell me you're leaving...
            G                     C               Em
e|--------3----5--3--0-----|---------3--|---------------0--------------------|
B|-----3----3------------3-|-------3----|------------------0----------------|
G|-------------------------|-----0------|------------0--------0--------------|
D|-------------------------|------------|---------2--------------------------|
A|-------------------------|--3---------|-----2------------------------------|
E|--3----------------------|------------|--0---------------------------------|
            C                      D                    Am7
e|-------------3----------|--------3--2-------|----------0-------------------|
B|----------3----3--------|------3------3-----|--------1---1-----------------|
G|-------0----------0-----|----2----------2---|------0-------0----------------|
D|------------------------|--0----------------|----2-------------------------|
A|--3-----------------3---|-------------------|--0---------------------------|
E|------------------------|-------------------|------------------------------|
         D                      C                        G               
e|---------2---------|------3--------3----------|------3---------------------|
B|-------3----3------|---------3---------3------|----------3-----------------|
G|-----2--------2----|------------0----------0--|---------------0------------|
D|--0----------------|--------------------------|----------------------------|
A|-------------------|--3-----------------------|----------------------------|
E|-------------------|--------------------------|--3-------------------------|
chorus:
       C                  D                   G|
e|-----3---------|------3-----------|-----3-------------------|--------------|
B|--------3------|---------3--------|--------3------0---1---3-|--------------|
G|-----------0---|-------------2----|-----------0-------------|--------------|
D|---------------|--0---------------|-------------------------|--------------|
A|--3------------|------------------|-------------------0---2-|--------------|
E|---------------|------------------|--3------------3---------|--------------|
       C                  D                 Em   
e|--3---3----------|------3---------|-----3--------------3-------------------|
B|----------3------|---------3------|--------3--------------3----------------|
G|-------------0---|------------0---|------------0-------------0-------------|
D|-----------------|--0-------------|----------------------------------------|
A|--3--------------|----------------|----------------------------------------|
E|-----------------|----------------|--0------------0------------------------|


         C                   D                   G
e|-------3------------|------3----------|-------3----------3-----------------|
B|------------3-------|----------3------|----------3----------3--------------|
G|-----------------0--|-------------2---|------------0----------0------------|
D|--------------------|--0--------------|------------------------------------|
A|--3-----------------|-----------------|------------------------------------|
E|--------------------|-----------------|--3-------------3-------------------|
           A7                          C              D
e|-----0---------------0--------|------0--------|-----2----------------------|
B|---------2---------------2----|---------1-----|--------3-------------------|
G|-------------0-------------2--|------------0--|-----------2----------------|
D|------------------------------|---------------|--0-------------------------|
A|--0--------------0------------|--3------------|----------------------------|
E|------------------------------|---------------|----------------------------|
        C                         G      Back to (don kmow what to.. for second verse.)
e|------3--------------3--------|--3-----------------------------------------|
B|---------3--------------3-----|--3-----------------------------------------|
G|-------------0-------------0--|--0-----------------------------------------|
D|------------------------------|--0-----------------------------------------|
A|--3-------------3-------------|--2-----------------------------------------|
E|------------------------------|--3-----------------------------------------|
|

Don't know what to say now
don't know where to start
I don't know how to handle
a complicated heart
You tell me you are leaving
but I just have to say
before you throw it all away

Chorus:
Even if you want to go alone
I will be waiting when you're coming home
if you need someone to ease the pain
you can lean on me, my love will still remain

Don't know what you're thinking
to me it seems quite tough
to hold a conversation
when words are not enough
so this is your decision
and there's nothing I can do
I can only say to you

Chorus:
Even if you want to go alone
I will be waiting when you're coming home
if you need someone to ease the pain
you can lean on me, my love will still remain    

Added On December 5th, 2013

SHARE

Comments

blog comments powered by Disqus

VERSIONS

ADVERTISEMENT