Michael Learns To Rock Tabs

Im Gonna Be Around

2 versions

TAB

            Im Gonna Be Around Chords by Michael Learns To Rock

#----------------------------------PLEASE NOTE---------------------------------#
#This file is the author's own work and represents their interpretation of the #
#song. You may only use this file for private study, scholarship, or research. #
#------------------------------------------------------------------------------#

Date: Mon, 23 Feb 1998 22:10:50 +0700
From: ken@yogya.wasantara.net.id
Subject: i'm gonna be around (michael learns to rock)


Michael Learns To Rock
I'M GONNA BE AROUND

intro
G --------3--------3-----------3-----------3------------------------1--0-------
B -----1-----1--------1-----1-----1-----1-----1---------1--0-----1-------------

C --------------0--------------------0---------------0--------2----------------
D -----------------------------------------------------------------------------
A ---3-------------------3----------------------2h3----------------------------
E -----------------------------------------------------------------------------
    Fmaj7
Fmaj7
e |---|---|---|---|---|
B |-x-|---|---|---|---|
G |---|-x-|---|---|---|
D |---|---|-x-|---|---|
A |---|---|---|---|---|
E |-x-|---|---|---|---|
G
G
e |---|---|-x-|---|---|
B |---|---|---|---|---|
G |---|---|---|---|---|
D |---|---|---|---|---|
A |---|-x-|---|---|---|
E |---|---|-x-|---|---|
C
C
e |---|---|-x-|---|---|
B |-x-|---|---|---|---|
G |---|---|---|---|---|
D |---|-x-|---|---|---|
A |---|---|-x-|---|---|
E |---|---|---|---|---|
G ----------------------------------------------------------------------------- B ----1--------------------3---1----------------------------------------------- C ----2----\5--5--4--2--4--4---0----------------------------------------------- D ----3--------------------5--------------------------------------------------- A ----------------------------------------------------------------------------- E ----------------------------------------------------------------------------- It's been so long since we took the time C-F-G-C To share words Am
Am
e |---|---|---|---|---|
B |-x-|---|---|---|---|
G |---|-x-|---|---|---|
D |---|-x-|---|---|---|
A |---|---|---|---|---|
E |---|---|---|---|---|
-F
F
e |-x-|---|---|---|---|
B |-x-|---|---|---|---|
G |---|-x-|---|---|---|
D |---|---|-x-|---|---|
A |---|---|-x-|---|---|
E |-x-|---|---|---|---|
>From deep inside us G We're in our own world spinning our wheels C-F-Em-Am But you know how I feel F-G-C Well since the first time I took your hand C-F-G-C My love for you Am-F Has just been growing G You always seem to understand C
C
e |---|---|-x-|---|---|
B |-x-|---|---|---|---|
G |---|---|---|---|---|
D |---|-x-|---|---|---|
A |---|---|-x-|---|---|
E |---|---|---|---|---|
-F
F
e |-x-|---|---|---|---|
B |-x-|---|---|---|---|
G |---|-x-|---|---|---|
D |---|---|-x-|---|---|
A |---|---|-x-|---|---|
E |-x-|---|---|---|---|
-Em
Em
e |---|---|---|---|---|
B |---|---|---|---|---|
G |---|---|---|---|---|
D |---|-x-|---|---|---|
A |---|-x-|---|---|---|
E |---|---|---|---|---|
-Am
Am
e |---|---|---|---|---|
B |-x-|---|---|---|---|
G |---|-x-|---|---|---|
D |---|-x-|---|---|---|
A |---|---|---|---|---|
E |---|---|---|---|---|
You know how I Am
Am
e |---|---|---|---|---|
B |-x-|---|---|---|---|
G |---|-x-|---|---|---|
D |---|-x-|---|---|---|
A |---|---|---|---|---|
E |---|---|---|---|---|
F
F
e |-x-|---|---|---|---|
B |-x-|---|---|---|---|
G |---|-x-|---|---|---|
D |---|---|-x-|---|---|
A |---|---|-x-|---|---|
E |-x-|---|---|---|---|
-G
G
e |---|---|-x-|---|---|
B |---|---|---|---|---|
G |---|---|---|---|---|
D |---|---|---|---|---|
A |---|-x-|---|---|---|
E |---|---|-x-|---|---|
(chorus) I'm gonna love you 'til the end C-F-G-C I'm gonna be Am-F Your very true friend G I wanna share your ups and downs C
C
e |---|---|-x-|---|---|
B |-x-|---|---|---|---|
G |---|---|---|---|---|
D |---|-x-|---|---|---|
A |---|---|-x-|---|---|
E |---|---|---|---|---|
-F
F
e |-x-|---|---|---|---|
B |-x-|---|---|---|---|
G |---|-x-|---|---|---|
D |---|---|-x-|---|---|
A |---|---|-x-|---|---|
E |-x-|---|---|---|---|
-G
G
e |---|---|-x-|---|---|
B |---|---|---|---|---|
G |---|---|---|---|---|
D |---|---|---|---|---|
A |---|-x-|---|---|---|
E |---|---|-x-|---|---|
-Am
Am
e |---|---|---|---|---|
B |-x-|---|---|---|---|
G |---|-x-|---|---|---|
D |---|-x-|---|---|---|
A |---|---|---|---|---|
E |---|---|---|---|---|
I'm gonna be around F
F
e |-x-|---|---|---|---|
B |-x-|---|---|---|---|
G |---|-x-|---|---|---|
D |---|---|-x-|---|---|
A |---|---|-x-|---|---|
E |-x-|---|---|---|---|
-G
G
e |---|---|-x-|---|---|
B |---|---|---|---|---|
G |---|---|---|---|---|
D |---|---|---|---|---|
A |---|-x-|---|---|---|
E |---|---|-x-|---|---|
-C
C
e |---|---|-x-|---|---|
B |-x-|---|---|---|---|
G |---|---|---|---|---|
D |---|-x-|---|---|---|
A |---|---|-x-|---|---|
E |---|---|---|---|---|
When you're alone 'cos I'm away C-F-G-C Don't be sad Am-F Don't be afraid G I'm gonna turn my thoughts to you C-F-Em-Am Like I always do F-G (chorus) I'm gonna love you 'til the end C-F-G-C I'm gonna be Am-F Your very true friend G I'm gonna share your ups and downs C-F-G-Am I'm gonna be around F
F
e |-x-|---|---|---|---|
B |-x-|---|---|---|---|
G |---|-x-|---|---|---|
D |---|---|-x-|---|---|
A |---|---|-x-|---|---|
E |-x-|---|---|---|---|
-G
G
e |---|---|-x-|---|---|
B |---|---|---|---|---|
G |---|---|---|---|---|
D |---|---|---|---|---|
A |---|-x-|---|---|---|
E |---|---|-x-|---|---|
-C
C
e |---|---|-x-|---|---|
B |-x-|---|---|---|---|
G |---|---|---|---|---|
D |---|-x-|---|---|---|
A |---|---|-x-|---|---|
E |---|---|---|---|---|
Catch you when you fall Bb Hold you when you're down A Sharing every moment F# I wanna show you all I do F-C I believe I've found a miracle Bb-F In you Bb (chorus) I'm gonna love you 'til the end Eb-Ab-Bb-Eb I'm gonna be Cm-Ab Your very true friend Bb I'm gonna share your ups and downs Eb-Ab-Bb-Cm I'm gonna be around Ab-Bb (chorus) I'm gonna love you 'til the end F-Bb-C-F I'm gonna be Dm-Bb Your very true friend C I'm gonna share your ups and downs F-Bb-C-Dm I'm gonna be around Bb
Bb
e |---|---|---|---|---|
B |---|---|-x-|---|---|
G |---|---|-x-|---|---|
D |---|---|-x-|---|---|
A |-x-|---|---|---|---|
E |---|---|---|---|---|
-C
C
e |---|---|-x-|---|---|
B |-x-|---|---|---|---|
G |---|---|---|---|---|
D |---|-x-|---|---|---|
A |---|---|-x-|---|---|
E |---|---|---|---|---|
-F
F
e |-x-|---|---|---|---|
B |-x-|---|---|---|---|
G |---|-x-|---|---|---|
D |---|---|-x-|---|---|
A |---|---|-x-|---|---|
E |-x-|---|---|---|---|
enjoy!!!! Kresnoadji ken@yogya.wasantara.net.id Yogyakarta, INDONESIA

Added On December 5th, 2013

SHARE

Comments

blog comments powered by Disqus

VERSIONS

ADVERTISEMENT