Michale Graves Tabs

Numb

1 versions

TAB

            Numb Tab by Michale Graves


Band:Michale Graves
Album:Demo
Song:Numb
Tabbed By:Luis Alvarez

  Verse
e---------------------------------------------------|
B---------------------------------------------------|
G---------------------------------------------------|
D--4-4-4-4-4-4---4-4-4------7--7-7------------------|
A--4-4-4-4-4-4---4-4-4------7--7-7------------------|
E--2-0-0-2-0-0---2-0-2------5--5-5------------------|
---D D  U  D D U      D U D

  Chorus
e---------------------------------------------------|
B---------------------------------------------------|
G--5-5-5-5---7-7-7-7---9-9-9-9----------------------|
D--5-5-5-5---7-7-7-7---9-9-9-9----------------------|
A--3-3-3-3---5-5-5-5---7-7-7-7----------------------|
E---------------------------------------------------|

  Verse
e---------------------------------------------------|
B---------------------------------------------------|
G---------------------------------------------------|
D--4-4-4-4-4-4---4-4-4------7--7-7------------------|
A--4-4-4-4-4-4---4-4-4------7--7-7------------------|
E--2-0-0-2-0-0---2-0-2------5--5-5------------------|
---D D  U  D D U      D U D
 Verse End
e-----------------------------------------------------|
B-----------------------------------------------------|
G-----------------------------------------------------|
D--4-4-4-4-4-4-4--4-4-4------7--7-7-------------------|
A--4-4-4-4-4-4-4--4-4-4------7--7-7-------------------|
E--2-2-2-2-2-0-2--2-0-2------5--5-5-------------------|
---D D  D D  D U D    D U D

  Bridge
e---------------------------------------------------|
B----------4-------------6-------------8------------|
G--------5---5---------7---7---------9---9----------|
D------5-------5-----7-------7-----9-------9--------|
A--3-3-----------3-5-----------5-7-----------7------|
E--0---------------0-------------0------------------|

Really easy song listen o the song and you will be
able to play it in no time. I tabbed the whole song
just put the parts where they go.    

Added On December 5th, 2013

SHARE

Comments

blog comments powered by Disqus

ADVERTISEMENT