Michelle Branch Tabs

Leap Of Faith

3 versions

TAB

            Leap Of Faith Tab by Michelle Branch


michelle branch - leap of faith (intro)
tabbed by: h2ogurl_1226
*** thanks to karatebob for the chords

capo on first!

intro:
e--------3---3-3-3-3--------3---3-3-3-3---3-3-3-3---0-0-0-0-3-0-0-0----|
b------1-----1-1-1-1------1-----1-1-1-1---1-1-1-1---1-1-1-1-1-1-1-1----|
g----2-------2-2-2-2------------0-0-0-0---0-0-0-0---2-2-2-2-2-2-2-2----|
d--3---------3-3-3-3----2-------2-2-2-2---0-0-0-0---2-2-2-2-2-2-2-2----|
a------------0-0-0-0--3---------3-3-3-3---2-2-2-2---0-0-0-0-0-0-0-0----|
e------------0-0-0-0------------0-0-0-0---3-3-3-3---x-x-x-x-x-x-x-x----|

end: "and i'ts a leap of fa-a-aith" (strumming is tricky, figure it out)
e--------3-3-3-3---3-3-3-3---3-3-3-3---0-0-0-0---|
b--------1-1-1-1---1-1-1-1---1-1-1-1---1-1-1-1---|
g----2---2-2-2-2---0-0-0-0---0-0-0-0---2-2-2-2---|
d--3-----3-3-3-3---2-2-2-2---0-0-0-0---2-2-2-2---|
a--------0-0-0-0---3-3-3-3---2-2-2-2---0-0-0-0---|
e--------0-0-0-0---0-0-0-0---3-3-3-3---x-x-x-x---|
** note that you repeat this part twice and instead of a bunch of strums for Am, just 
once during the 2nd time...


intro:  FM7-C7-Gsus-Am-Am7-------|Am
v--------------------------------|erse:  C-G-Am (2x) F-C-G, C-G-Am
chorus: F-C-G-Am (3x) F-C-G    

Added On December 5th, 2013

SHARE

Comments

blog comments powered by Disqus

VERSIONS

ADVERTISEMENT