Millencolin Tabs

Ray

4 versions

TAB

            Ray Tab by Millencolin


Band: Millencolin
Song: Ray
Tabbed by: David Maillet
Standard Tuning

There is a small part of the interlude by Guitar 2 that I can't figure out.
If you know it, please post it and I will add it. 


Verse 1:

Guitar1: 
(0:00)

e|-------------------------------------------------|
B|-------------------------------------------------|
G|-4--------8-8-8--9-9-9-9--4-4-4-4-4-4-4----------|
D|----x-15-----------------------------------------|
A|-2--------6-6-6--7-7-7-7--2-2-2-2-2-2-2----------|
E|-------------------------------------------------|

e|-------------------------------------------------|
B|-------------------------------------------------|
G|-4--------8-8-8--9-9-9-9--4-4-4-4-4-4-4----------|
D|----x-15-----------------------------------------|
A|-2--------6-6-6--7-7-7-7--2-2-2-2-2-2-2----------|
E|-------------------------------------------------|

e|-------------------------------------------------|
B|-------------------------------------------------|
G|---------------------4-4-4-4-4-4-4---------------|
D|-6-6-6-6--2-2-2-2-2------------------------------|
A|-6-6-6-6--2-2-2-2-2--2-2-2-2-2-2-2---------------|
E|-4-4-4-4--0-0-0-0-0------------------------------|

e|-----------------------------------------------|
B|-----------------------------------------------|
G|-----------------------------------------------|
D|-6-6-6-6--4-4-4-4--2-2-2-2---------------------|
A|-6-6-6-6--4-4-4-4--2-2-2-2---------------------|
E|-4-4-4-4--2-2-2-2--0-0-0-0---------------------|

Guitar 2:
(0:27)
play note until chorus

e|-----------|
B|-----------|
G|--11-------|
D|-----------|
A|-----------|
E|-----------|

Chorus (2x)
(0:29)

e|-----------------------------------------------|
B|-----------------------------------------------|
G|--4--------------------------------------------|
D|--4--4-6-4-2-----------------------------------|
A|--2--4-6-4-2-----------------------------------|
E|-----2-4-2-0-----------------------------------|


Verse 2:
(0:49)

e|-------------------------------------------------|
B|-------------------------------------------------|
G|-4--------8-8-8--9-9-9-9--4-4-4-4-4-4-4----------|
D|----x-15-----------------------------------------|
A|-2--------6-6-6--7-7-7-7--2-2-2-2-2-2-2----------|
E|-------------------------------------------------|

e|-------------------------------------------------|
B|-------------------------------------------------|
G|-4--------8-8-8--9-9-9-9--4-4-4-4-4-4-4----------|
D|----x-15-----------------------------------------|
A|-2--------6-6-6--7-7-7-7--2-2-2-2-2-2-2----------|
E|-------------------------------------------------|


e|-------------------------------------------------|
B|-------------------------------------------------|
G|---------------------4-4-4-4-4-4-4---------------|
D|-6-6-6-6--2-2-2-2-2------------------------------|
A|-6-6-6-6--2-2-2-2-2--2-2-2-2-2-2-2---------------|
E|-4-4-4-4--0-0-0-0-0------------------------------|

e|-----------------------------------------------|
B|-----------------------------------------------|
G|-----------------------------------------------|
D|-6-6-6-6--4-4-4-4--2-2-2-2---------------------|
A|-6-6-6-6--4-4-4-4--2-2-2-2---------------------|
E|-4-4-4-4--2-2-2-2--0-0-0-0---------------------|

Guitar 2:
(1:15)
play note until chorus

e|-----------|
B|-----------|
G|--11-------|
D|-----------|
A|-----------|
E|-----------|

Chorus (2x)
(1:18)

e|-----------------------------------------------|
B|-----------------------------------------------|
G|--4--------------------------------------------|
D|--4--4-6-4-2-----------------------------------|
A|--2--4-6-4-2-----------------------------------|
E|-----2-4-2-0-----------------------------------|


Interlude:
Guitar 1
(1:37)

e|-----------------------------------------------|
B|-----------------------------------------------|
G|--9-----11-9-11-9-11-9-11-9-11-9-11------------|
D|----x16----------------------------------------|
A|--7------9-7--9-7--9-7--9-7--9-7--9------------|
E|-----------------------------------------------|

Guitar 2
(1:49)

e|--|------------------------|-------------------|
B|--|------------------------|-------------------|
G|--|11--9-9--8-8--6--4------|----11-------------|
D|--|11--9-9--8-8--6--4--(7x)|-----9-------------|
A|--|-9--7-7--6-6--4--2------|-----9-------------|
E|--|------------------------|-------------------|

Chorus (2x)
(2:09)

e|-----------------------------------------------|
B|-----------------------------------------------|
G|--4--------------------------------------------|
D|--4--4-6-4-2-----------------------------------|
A|--2--4-6-4-2-----------------------------------|
E|-----2-4-2-0-----------------------------------|


End part:

Guitar 1:
(2:28)
Play until the end

e|-----------------------------------------------|
B|-----------------------------------------------|
G|--4--------------------------------------------|
D|--4--4-6-4-2-----------------------------------|
A|--2--4-6-4-2-----------------------------------|
E|-----2-4-2-0-----------------------------------|

Guitar2: (2x)
(2:28)

e|--|------------------------|-------------------|
B|--|------------------------|-------------------|
G|--|11--9-9--8-8--6--4------|----13--16---------|
D|--|11--9-9--8-8--6--4--(3x)|-------------------|
A|--|-9--7-7--6-6--4--2------|----11--14---------|
E|--|------------------------|-------------------|

e|--|------------------------|-------------------|
B|--|------------------------|-------------------|
G|--|11--9-9--8-8--6--4------|----9--13--16------|
D|--|11--9-9--8-8--6--4--(2x)|-------------------|
A|--|-9--7-7--6-6--4--2------|---11--11--14------|
E|--|------------------------|-------------------|

End on


e|--------------|
B|--------------|
G|--4-----------|
D|--------------|
A|--2-----------|
E|--------------|    

Added On December 5th, 2013

SHARE

Comments

blog comments powered by Disqus

VERSIONS

ADVERTISEMENT