Minatori Tabs

Or E Prishur

1 versions

TAB

            Or E Prishur Tab by Minatori


Orë e prishur - Minatori
Danny boy

(ky është ritmi: poshtë, lart, poshtë, lart)

Em – intro

e------0--0-0--------|
b------0--0-0--------|
g--------------------|
d--2-----------------|
a--2-----------------|
e--0-----------------|


Am
e------0--0-0--------|
b------1--1-1--------|
g--2-----------------|
d--2-----------------|
a--0-----------------|
e--------------------|

B
e------2--2-2--------|
b------4--4-4--------|
g--4-----------------|
d--4-----------------|
a--2-----------------|
e--------------------|

G
e------3--3-3--------|
b------3--3-3--------|
g--------------------|
d--0-----------------|
a--2-----------------|
e--3-----------------|

D
e------2--2-2--------|
b------3--3-3--------|
g--2-----------------|
d--0-----------------|
a--0-----------------|
e--------------------|


Em x 2
Si një orë e prishur,
Am  x 2        Em x 4
koha është ndal.
Em x 2
si një re e vetmuar,
Am x 2          Em x 4
e bekuar kjo ditë.


Am x 4
dhe heshtja vdes,
                  Em x 4
heshtja të gjithë mi thotë.
B x 4                        Em x 4
ti je këtu, ka njëmijë vjet.


Em
e duart flasin,
Am                  Em
duart tua më kërkojnë..
Em             Am          Em
shikimi yt, detin ma kujton..


Am
dhe heshtja vdes,
              Em
heshtja të gjithë mi thotë.
B                      Em     E5 D5
ti je këtu, ka njëmijë vjet.

G     D            G
Ti, kudo që të shkosh,
D           G
kudo që të jesh,
B               Em
pranë do t'më kesh.


Solo x 2
e----------------------|
b-8-10--10-8-7-7--8----|
g------9~--------------|
d-------------------9~-|
a----------------------|
e----------------------|


      \w/
       #
       #
      _#_
     (   )
     / O \
    (_____)
     Enjoy!

Suksese!

fidan.kosumi@gmail.com    

Added On December 5th, 2013

SHARE

Comments

blog comments powered by Disqus

ADVERTISEMENT