Minor Threat Tabs

Bottled Violence

2 versions

TAB

            Bottled Violence Tab by Minor Threat


----------------------------------------------------------------------------
			     Bottled Violence - Minor Threat
----------------------------------------------------------------------------
Tabbed by:  Shane Moore aka Unseen_hero
Email:  agentorange1@gmail.com (spam = death)

Tuning: standard

Keep in mind that this is hardcore and that the chord changes are so fast that
sometimes they're hard to pick up.  I tried to show it with spacing that hill hit
a chord twice real face and switch.  Listen closely and you'll pick it up quick.

Verse
e|-----------------------------|
B|-----------------------------|
G|------5-5-7-----5-5----------|
D|-77-7-5-5-7--3--5-5-7-7------|
A|-77-7-3-3-5--3--3-3-7-7------|
E|-55-5--------1------5-5------|

Chorus
e|------------|
B|------------|
G|-----5-5-3--|
D|-555-5-5-3--|
A|-555-3-3-1--|
E|-333--------|

End Chorus
e|------|
B|------|
G|------|
D|-5-5--|
A|-5-5--|
E|-3-3--|

order:
verse x 1 (bass only)
verse x 5
chorus x 3
end chorus x 1
verse x 6
chorus x 3
end chorus x 1
verse x 2
chorus x 4



| /  slide up
| \  slide down
| h  hammer-on
| p  pull-off
| ~  vibrato
| +  harmonic
| x  Mute note
============================================================================    

Added On December 5th, 2013

SHARE

Comments

blog comments powered by Disqus

VERSIONS

ADVERTISEMENT