Minus The Bear Tabs

Drilling

1 versions

TAB

            Drilling - Menos El Oso

Tuning is drop D
Intro

*use your strumming hand to tap.

Dave is using his DL4 Line 6 modeler to play this, but if you're not
fortunate to have one, playing this is a decent substitute.
e|----------------------------------14*----|
B|----------------------------------14*----|
G|---9-------------------------9-----------|
D|-----7-------7-------7---------7---------|
A|-9-----9-9-9---9-9-9---9-9-9-------------|
D|-----------------------------------------|

Chorus
|-----------------------------------------------------------------|
|-----------------------------------------------------------------|
|-6-6-6-6-6-6-6----------------11-11-11-11-11-11-11-9-9-9-9-9-9-9-|
|-4-4-4-4-4-4-4-0-0-0-0-0-0-0--9--9--9--9--9--9--9--7-7-7-7-7-7-7-|
|-4-4-4-4-4-4-4-0-0-0-0-0-0-0--9--9--9--9--9--9--9--7-7-7-7-7-7-7-|
|-4-4-4-4-4-4-4-0-0-0-0-0-0-0--9--9--9--9--9--9--9--7-7-7-7-7-7-7-|

On last way through, go back to:

|----------------------|
|----------------------|
|-11-11-11-11-11-11-11-|
|-9--9--9--9--9--9--9--|
|-9--9--9--9--9--9--9--|
|-9--9--9--9--9--9--9--|

Then:

Dave (the chord used is an f#m7)
|---------------------------------------|
|-5----------5--------------------------|
|-2----------2--------------------------|
|-4--*9/11p--4--*9/11p-14---------------| a few times.
|---------------------------------------|
|-4--*9/11p--4--*9/11p-14---------------|
  ^
While holding original chord (^):

D|-11-11-11-11-11-11---------------------|
A|--------------------etc----------------|
D|-11-11-11-11-11-11---------------------|

Jake plays simultaneously:

|---------------------------------------|
|--------9---------9--------------------|
|-9-9h11----9-9h11---9--etc.-xxxxxxxxxx-|
|-7---------7----------------xxxxxxxxxx-|
|----------------------------xxxxxxxxxx-|
|---------------------------------------|

Bridge? "You Know..."

|--------------|  |--------------|
|-5-5-5-5------|  |-5-5-5-5------|
|-2-2-2-2------|  |-2-2-2-2------|
|-4-4-4-4-etc.-|  |-4-4-4-4-etc.-|
|-0-0-0-0------|  |-0-0-0-0------|
|-4-4-4-4------|  |-0-0-0-0------|

Then:
Another Modeled part..

   Tap with Right           Tap with Left
|--14--14--14--14--14--14---------|
|-14--14--14--14--14--14----------|
|-----------------------------9---|
|-------------------------------7-|
|---------------------------9-----|
|---------------------------------|

Also, this Modeled part comes in at times:

The 9's are muted.
I find the best way to recreate this is to cross your hands over.
Let your Right index finger tap the 9's as fast as you can in quadruples.
Let your Left hand tap the 14's with your middle and ring fingers...
This leaves your Left index finger free to gently mute the G string.
|-------------------------------------14-|
|-------------------------------------14-|
|-9-9-9-9--9-9-9-9--9-9-9-9--9-9-9-9-----|
|----------------------------------------|
|----------------------------------------|
|----------------------------------------|
You can also tap the 9th fret on the A string simultaneously for a deeper sound.

Outro:
|----------------------------------------------------------------|
|-------------------------------------------11-11-11-11-11-11-11-|
|-6-6-6-6-6-6-6---------------9-9-9-9-9-9-9-9--9--9--9--9--9--9--|
|-4-4-4-4-4-4-4-0-0-0-0-0-0-0-7-7-7-7-7-7-7-9--9--9--9--9--9--9--|
|-4-4-4-4-4-4-4-0-0-0-0-0-0-0-7-7-7-7-7-7-7-9--9--9--9--9--9--9--|
|-4-4-4-4-4-4-4-0-0-0-0-0-0-0-7-7-7-7-7-7-7-9--9--9--9--9--9--9--|

|----------------------|-----------|
|----------------------|-----------|
|-13-13-13-13-13-13-13-|-13^14^13~-|
|-11-11-11-11-11-11-11-|-----------|
|-11-11-11-11-11-11-11-|-----------|
|-11-11-11-11-11-11-11-|-----------|

End with:

|-x-x-x-x-x-x-x-|
|-x-x-x-x-x-x-x-|
|-x-x-x-x-x-x-x-|
|-x-x-x-x-x-x-x-|
|-x-x-x-x-x-x-x-|
|-x-x-x-x-x-x-x-|

I got this tab from a Minus the Bear forum (menoseloso.com).  The original author gave 
to use his tabs for other forums.  Most of this is his but I've clarified some parts, but 
duly his.    

Added On December 16th, 2013

SHARE

Comments

blog comments powered by Disqus

ADVERTISEMENT