Misc Cartoons Tabs

Thomas The Train Theme

1 versions

TAB

            ===============================================================================
                          Thomas the Train Theme
===============================================================================
Tabbed by: .Jan.
Requested: 205x
-------------------------------------------------------------------------------
Standard tuning (EADGBe)

e|------7-8--10-12-|------------|-5-0-5-3-------|-3S5-0-0-5-3-----3p2h3p2|
B|-8-10------------|-9~~--------|---------------|------------------------|
G|-----------------|------------|---------------|------------------------|
D|-----------------|------------|---------------|------------------------|
A|-----------------|------------|---------------|------------------------|
E|-----------------|------------|---------------|------------------------|

e|h3--3-----2h3p2h3-|-4--4-------1-2-|-3---6---1---3---|-4---------4-3-2-|
B|------------------|----------4-----|-----------------|-----------------|
G|------------------|----------------|-----------------|-----------------|
D|------------------|----------------|-----------------|-----------------|
A|------------------|----------------|-----------------|-----------------|
E|------------------|----------------|-----------------|-----------------|

e|-1--1-1--1--1----|-----------------|-----------------|-8-8-----------16|
B|-----------------|-4--4-4--4--4----|-2--2-2--2--2----|-----11-9--------|    
G|-----------------|-----------------|-----------------|-----------------|
D|-----------------|-----------------|-----------------|-----------------|
A|-----------------|-----------------|-----------------|-----------------|
E|-----------------|-----------------|-----------------|-----------------|    

Added On December 16th, 2013

SHARE

Comments

blog comments powered by Disqus

ADVERTISEMENT