Misc Christmas Tabs

Auld Lang Syne

5 versions

TAB

            This is the easiest way to play the song, and I hope you enjoy!  It may be a little 
than the actual thing, but I thought it sounded awesome.

e]-----------------------------3-5-5-3---------------------------5-3---------|
B]-----------5-3---3-5-3-----5---------5-5---3---3-5-3---------------5-5---3-|
G]---0-5-4-5-----5-------5-5---------------5---5-------5-2-2---5---------5---|
D]-----------------------------------------------------------5---------------|
A]---------------------------------------------------------------------------|
E]---------------------------------------------------------------------------|

e]-----5-3-----3-5-5-3----------------------------|
B]---3-----5-5---------5-5---3---3-5-3------------|
G]-5-----------------------5---5-------5-2-2---5--|
D]-------------------------------------------5-5--|
A]------------------------------------------------|
E]------------------------------------------------|    

Added On December 16th, 2013

SHARE

Comments

blog comments powered by Disqus

VERSIONS

ADVERTISEMENT