Misc Christmas Tabs

Here We Come A-wassailing

2 versions

TAB

            ----------------------------------------------------------------------------
		Here We Come A Wassailing - (Christmas)
----------------------------------------------------------------------------

Tabbed by: Christmas Guy
Email:

Tuning: Standard

e|-----------------------------7-7-7-|--9--9--7--5--7--5--4--|
B|--5--7--9--7--5--7--9--7--5--------|-----------------------|
G|-----------------------------------|-----------------------|
D|-----------------------------------|-----------------------|
A|-----------------------------------|-----------------------|
E|-----------------------------------|-----------------------|


e|---------------|-------------12--9--7--|-----------------12--9--7--|
B|--7--7--9--10--|--9--10--12------------|--9--10--12--12------------|
G|---------------|-----------------------|---------------------------|
D|---------------|-----------------------|---------------------------|
A|---------------|-----------------------|---------------------------|
E|---------------|-----------------------|---------------------------|


e|-------------9------------|-----------5--|-------------9-----------------|
B|--9--10--12-----9--10--7--|--5--7--9-----|--9--10--12-----9--10--7--7--5-|
G|--------------------------|--------------|-------------------------------|
D|--------------------------|--------------|-------------------------------|
A|--------------------------|--------------|-------------------------------|
E|--------------------------|--------------|-------------------------------|


Merry Christmas!    

Added On December 16th, 2013

SHARE

Comments

blog comments powered by Disqus

VERSIONS

ADVERTISEMENT