Misc Christmas Tabs

Jingle Bells Intro

1 versions

TAB

            Jingle Bells Tab by Misc Christmas


    This is the right intro to jingle bells, 
           not like all the others

   Jingle bells....                        ...sleigh, HEY!
e---------------------------------------------------------
B-----------------3---------------------------------------
G--4-4-4--4-4-4--4-0-2-4----5-5-5--5-5-4-4-"-"-"-2-2-4-2-7
D---------------------------------------------------------
A---------------------------------------------------------
E---------------------------------------------------------


   Jingle bells....                        ...open sleigh
e---------------------------------------------------------
B-----------------3---------------------------------------
G--4-4-4--4-4-4--4-0-2-4----5-5-5--5-5-4-4-"-"-7-7-5-4-0--
D---------------------------------------------------------
A---------------------------------------------------------
E---------------------------------------------------------
    
   Thats just the intro i'll try to come up with the rest 
   untill then you can learn the intro and try to come up 
    with the rest yourself.    

Added On December 5th, 2013

SHARE

Comments

blog comments powered by Disqus

ADVERTISEMENT