Misc Christmas Tabs

Let It Snow

3 versions

TAB

            LET IT SNOW


VERSE
----3-3-1-0--------------------------------|
------------3-1----------3-1-3-1-0---------|
0-0-------------0----0-0-----------0-------|
-------------------------------------------|
-------------------------------------------|
-------------------------------------------|


----5-5-3-1-0-------7-5-3--3-1-0--0--------|
--------------3---------------------3-1----|
0-0----------------------------------------|
-------------------------------------------|
-------------------------------------------|
-------------------------------------------|
*repeat verse

CHORUS
------0-----3------------------------------|
0-1-3---3-0---3----0-3-1-1-0-----0---------|
-----------------------------2-0-----------|
-------------------------------------------|
-------------------------------------------|
-------------------------------------------|


------0-----3------2-0-2-----3-------------|
0-1-3---3-0---3----------3-0---------------|
-------------------------------------------|
-------------------------------------------|
-------------------------------------------|
-------------------------------------------|
*repeat verse


Tabbed by Eugene Lai(popbic@hotmail.com).
Please rate thanks!    

Added On December 16th, 2013

SHARE

Comments

blog comments powered by Disqus

VERSIONS

ADVERTISEMENT