Misc Christmas Tabs

Silent Night

2 versions

TAB

            [Main riff]
e|---------------------------------------------------------------------------|
B|---------------------------------------------------------------------------|
G|------------------------------------7---7---4---5---5---0---2---2---5------|
D|--5---7---5---2---5---7---5---2--------------------------------------------|
A|---------------------------------------------------------------------------|
E|---------------------------------------------------------------------------|

e|---------------------------------------------------------------------------|
B|---------------------------------------------------------------------------|
G|--4---2---0---2---0-------7---7---10---7---4---5---9------5---0-------0----|
D|----------------------2-------------------------------------------2--------|
A|---------------------------------------------------------------------------|
E|---------------------------------------------------------------------------|

e|---------------------------------------------------------------------------|
B|---------------------------------------------------------------------------|
G|---------------------------------------------------------------------------|
D|--2---0--------------------------------------------------------------------|
A|----------3----------------------------------------------------------------|
E|---------------------------------------------------------------------------|

e|---------------------------------------------------------------------------|
B|---------------------------------------------------------------------------|
G|------------------------------------7---7---4---5---5---0---2---2---5------|
D|--5---7---5---2---5---7---5---2--------------------------------------------|
A|---------------------------------------------------------------------------|
E|---------------------------------------------------------------------------|

e|---------------------------------------------------------------------------|
B|---------------------------------------------------------------------------|
G|--4---2---0---2---0-------7---7---10---7---4---5---9------5---0-------0----|
D|----------------------2-------------------------------------------2--------|
A|---------------------------------------------------------------------------|
E|---------------------------------------------------------------------------|

e|---------------------------------------------------------------------------|
B|---------------------------------------------------------------------------|
G|---------------------------------------------------------------------------|
D|--2---0--------------------------------------------------------------------|
A|----------3----------------------------------------------------------------|
E|---------------------------------------------------------------------------|

e|---------------------------------------------------------------------------|
B|---------------------------------------------------------------------------|
G|------------------------------------7---7---4---5---5---0---2---2---5------|
D|--5---7---5---2---5---7---5---2--------------------------------------------|
A|---------------------------------------------------------------------------|
E|---------------------------------------------------------------------------|

e|---------------------------------------------------------------------------|
B|---------------------------------------------------------------------------|
G|--4---2---0---2---0-------7---7---10---7---4---5---9------5---0-------0----|
D|----------------------2-------------------------------------------2--------|
A|---------------------------------------------------------------------------|
E|---------------------------------------------------------------------------|

e|---------------------------------------------------------------------------|
B|---------------------------------------------------------------------------|
G|---------------------------------------------------------------------------|
D|--2---0--------------------------------------------------------------------|
A|----------3----------------------------------------------------------------|
E|---------------------------------------------------------------------------|

e|---------------------------------------------------------------------------|
B|---------------------------------------------------------------------------|
G|------------------------------------7---7---4---5---5---0---2---2---5------|
D|--5---7---5---2---5---7---5---2--------------------------------------------|
A|---------------------------------------------------------------------------|
E|---------------------------------------------------------------------------|

e|---------------------------------------------------------------------------|
B|---------------------------------------------------------------------------|
G|--4---2---0---2---0-------7---7---10---7---4---5---9------5---0-------0----|
D|----------------------2-------------------------------------------2--------|
A|---------------------------------------------------------------------------|
E|---------------------------------------------------------------------------|

e|---------------------------------------------------------------------------|
B|---------------------------------------------------------------------------|
G|---------------------------------------------------------------------------|
D|--2---0--------------------------------------------------------------------|
A|----------3----------------------------------------------------------------|
E|---------------------------------------------------------------------------|    

Added On December 17th, 2016

SHARE

Comments

blog comments powered by Disqus

VERSIONS

ADVERTISEMENT