Misc Computer Games Tabs

Super Smash Bros Melee - Temple Theme

1 versions

TAB

            -------------------------------------------------------------------------------
                             Temple Theme - Super Smash Bros Melee
-------------------------------------------------------------------------------
Tabbed by: Jérome Guay
E-mail: ballasbasaure@gmail.com

Tuning: Standard (EADGBe)

e|---------------------------------------------------------------------------|
B|-3----3-----3---4----4----4---5----5----5---4---4---4-----8-8-8-8--11-10-9|
G|--3----3-----3---3----3----3---3----3----3---3---3---3-------------|
D|----5----5---------5----5---------5----5--------5---3-----------------|
A|---------------------------------------------------------------------------|
E|---------------------------------------------------------------------------|

e|-------------10-11~-----11-12~-----12-11-15-13-11--------------|
B|-8~-10-11---------11~---------11~-----------------------------------|
G|---------------------------------------------------------------------------|
D|---------------------------------------------------------------------------|
A|---------------------------------------------------------------------------|
E|---------------------------------------------------------------------------|
  |
  |
e|---------------------------------------------------------------------------|
B|-3----3-----3---4----4----4---5----5----5---4---4---4---------------|
G|--3----3-----3---3----3----3---3----3----3---3---3---3--------------|
D|----5----5---------5----5---------5----5--------5---3-----------------|
A|---------------------------------------------------------------------------|
E|---------------------------------------------------------------------------|


e|-------------10-11~-----11-12~-----12-11-15-13-11--------------|
B|-8~-10-11---------11~---------11~-----------------------------------|
G|---------------------------------------------------------------------------|
D|---------------------------------------------------------------------------|
A|---------------------------------------------------------------------------|
E|---------------------------------------------------------------------------|
  |
  |
e|---------------------------------------------------------------------------|
B|-3----3-----3---4----4----4---5----5----5---4---4---4---------------|
G|--3----3-----3---3----3----3---3----3----3---3---3---3--------------|
D|----5----5---------5----5---------5----5--------5---3-----------------|
A|---------------------------------------------------------------------------|
E|---------------------------------------------------------------------------|


e|-10-10--10-10-8-------10-10--10-10-11-------10-10--10-10-8-------10-10--10-10-13--11-10-|
B|---------------------------------------------------------------------------|
G|---------------------------------------------------------------------------|
D|---------------------------------------------------------------------------|
A|---------------------------------------------------------------------------|
E|---------------------------------------------------------------------------|
  |
  |
e|--------------------------------------------------------------------------------|
B|-3-3--3-3-1-------3-3--3-3-4------3-3--3-3-1-------3-3--3-3-6--3-4-|
G|------------------2------------------2------------------2---------------------|
D|----------------4------------------4------------------4-----------------------|
A|---------------5------------------5------------------5------------------------|
E|--------------------------------------------------------------------------------|

e|-------------10-11~-----11-12~-----12-11-15-13-11--------------|
B|-8~-10-11---------11~---------11~-----------------------------------|
G|---------------------------------------------------------------------------|
D|---------------------------------------------------------------------------|
A|---------------------------------------------------------------------------|
E|---------------------------------------------------------------------------|
  |
  |
e|---------------------------------------------------------------------------|
B|-3----3-----3---4----4----4---5----5----5---4---4---4---------------|
G|--3----3-----3---3----3----3---3----3----3---3---3---3--------------|
D|----5----5---------5----5---------5----5--------5---3-----------------|
A|---------------------------------------------------------------------------|
E|---------------------------------------------------------------------------|

e|-------------10-11~-----11-12~-----12-11-15-13-11--------------|
B|-8~-10-11---------11~---------11~-----------------------------------|
G|---------------------------------------------------------------------------|
D|---------------------------------------------------------------------------|
A|---------------------------------------------------------------------------|
E|---------------------------------------------------------------------------|
  |
  |
e|---------------------------------------------------------------------------|
B|-3----3-----3---4----4----4---5----5----5---4---4---4---------------|
G|--3----3-----3---3----3----3---3----3----3---3---3---3--------------|
D|----5----5---------5----5---------5----5--------5---3-----------------|
A|---------------------------------------------------------------------------|
E|---------------------------------------------------------------------------|


e|---------------------------------------------------------------------------|
B|-13-10-11-13~-11-10--10-7-8-10~-8-7---------------------------|
G|---------------------------------------------------------------------------|
D|---------------------------------------------------------------------------|
A|---------------------------------------------------------------------------|
E|---------------------------------------------------------------------------|

e|-13-8-10-11~-10-8--------------------10-11-------------------------|
B|-------------------------13-10-11-13~---------------------------------|
G|---------------------------------------------------------------------------|
D|---------------------------------------------------------------------------|
A|---------------------------------------------------------------------------|
E|---------------------------------------------------------------------------|

e|---------------------------------------------------------------------5--8--|
B|-13-10-11-13~-11-10--10-7-8-10~-8-7----------------7~--------|
G|-------------------------------------------------7-7-8~--7-7-----------|
D|---------------------------------------------------------------------------|
A|---------------------------------------------------------------------------|
E|---------------------------------------------------------------------------|    

Added On June 21st, 2014

SHARE

Comments

blog comments powered by Disqus

ADVERTISEMENT