Misc Soundtrack Tabs

Pirates Of The Caribbean Theme Intro

2 versions

TAB

            This is a fun song to play , I just tabed it about 3 mins ago.
There are a lot of mistakes i know. But it's not nearly finished yet.
have any probs just email me .  =D
cover_up_wid_makeup_in_the_mirror@hotmail.com  


E|------------------------------------------------------------------|
B|----------------------------------------5-6-8-8-8p6-6/5-5---------|
G|----------------------------------5-7-7-------------------7p5-5h7-|
D|--------------------------------7---------------------------------|
A|5-55555-5-55555-5-55555-5-55555-----------------------------------|
E|------------------------------------------------------------------|

E|----------------------------------|----------------5-6-6p5-5---|
B|--------5-6-8-8--8p6-6/5----------|--------5-6-8-8--------8----|
G|--5-7-7------------------7p5-5h7--|--5-7-7-------------------7-|
D|7---------------------------------|7---------------------------|
A|----------------------------------|----------------------------|
E|----------------------------------|----------------------------|

E|----------5---------------|
B|----6-8-8-----5-5h6p5---5-|
G|5-7---------7---------7---|
D|--------------------------|
A|--------------------------|
E|--------------------------|

E|5555p-6p-333p-5-11111p-3p-------------------------||
B|--------------------------3-3--1-1p-3-------------||
G|--------------------------------------------------||
D|--------------------------------------------------||
A|--------------------------------------------------||
E|--------------------------------------------------||

E|------------------------------------------------------------------|
B|----------------------------------------5-6-8-8-8p6-6/5-5---------|
G|----------------------------------5-7-7-------------------7p5-5h7-|
D|--------------------------------7---------------------------------|
A|------------------------------------------------------------------|
E|------------------------------------------------------------------|


E|----------------------------------|----------------5-6-6p5-5---|
B|--------5-6-8-8--8p6-6/5----------|--------5-6-8-8--------8----|
G|--5-7-7------------------7p5-5h7--|--5-7-7-------------------7-|
D|7---------------------------------|7---------------------------|
A|----------------------------------|----------------------------|
E|----------------------------------|----------------------------|

E|----------5---------------|
B|----6-8-8-----5-5h6p5---5-|
G|5-7---------7---------7---|
D|--------------------------|
A|--------------------------|
E|--------------------------|    

Added On December 16th, 2013

SHARE

Comments

blog comments powered by Disqus

VERSIONS

ADVERTISEMENT