Misc Television Tabs

Monk Theme

1 versions

TAB

            MONK THEME – Season 1
http://www.youtube.com/watch?v=qNKyLp6aoyQ



|  h = hammer on
|  p = pull off
|  b = full bend
|  ^ = half bend/partial bend
|  r = release bend
|  / = slide up
|  \ = slide down
|  x = muted note
|  . = palm mute
|  ~ = vibrato
|  * = harmonic
|  PrBe = pre-bend
|  PH = pinch harmonic



Acoustic guitar:

e|-----------------------------------------------------------|
B|-8----8--9--9--10--11----8------------------------/8--8~~--|
G|----------------------------10--8--10----8--7--8-----------|
D|-----------------------------------------------------------|
A|-----------------------------------------------------------|
E|-----------------------------------------------------------|


e|-----------------------------------------------------------|
B|-8----8--9--9--10--11----8------------------------/11~~----|
G|----------------------------10--8--10----8--7--8-----------|
D|-----------------------------------------------------------|
A|-----------------------------------------------------------|
E|-----------------------------------------------------------|


e|----------------/8-------------------9--8------------------|
B|-8----8--9--11--------9--8-----------------8--9--9~~-------|
G|----------------------------10--9--------------------------|
D|-----------------------------------------------------------|
A|-----------------------------------------------------------|
E|-----------------------------------------------------------|


e|-----------------------------------------------------------|
B|-8--9--11--------------------------------------------------|
G|-----------/12--8--10--8--/12--8--10--8--/12--8------------|
D|-----------------------------------------------------------|
A|-----------------------------------------------------------|
E|-----------------------------------------------------------|


e|-10----8---------------||
B|----11---9-8----11~~---||
G|-------------10--------||
D|-----------------------||
A|-----------------------||
E|-----------------------||


e|-----------------------------------------------------------|
B|-8--9--10--11----8------------------------/8--8~~----------|
G|--------------------10--8--10----8--7--8-------------------|
D|-----------------------------------------------------------|
A|-----------------------------------------------------------|
E|-----------------------------------------------------------|


e|-----------------------------------------------------------|
B|-8----8--9--10--11----8------------------------/11~~-------|
G|-------------------------10--8--10----8--7--8--------------|
D|-----------------------------------------------------------|
A|-----------------------------------------------------------|
E|-----------------------------------------------------------|


e|---------------------------------13----11--10--------------|
B|-8--8--9--11--/13----13--12--13----------------13--11--11--|
G|-----------------------------------------------------------|
D|-----------------------------------------------------------|
A|-----------------------------------------------------------|
E|-----------------------------------------------------------|


e|-----------------------------------------------------------|
B|-8--9--11--------------------------------------------------|
G|-----------/12--8--10--8--/12--8--10--8--/12--8------------|
D|-----------------------------------------------------------|
A|-----------------------------------------------------------|
E|-----------------------------------------------------------|


e|-10----8--------------||
B|----11---9-8----11----||
G|-------------10-------||
D|----------------------||
A|----------------------||
E|----------------------||


e|-----------------------------------------------------------|
B|-8--9--10--11----8------------------------/8--8~~----------|
G|--------------------10--8--10----8--7--8-------------------|
D|-----------------------------------------------------------|
A|-----------------------------------------------------------|
E|-----------------------------------------------------------|


e|-----------------------------------------------------------|
B|-8--8--9--9--11--------------------------------------------|
G|-----------------/12--8--10--8--/12--8--10--8--/12\-----8~~|
D|-----------------------------------------------------8-----|
A|-----------------------------------------------------------|
E|-----------------------------------------------------------|    

Added On December 16th, 2013

SHARE

Comments

blog comments powered by Disqus

ADVERTISEMENT