Misc Traditional Tabs

Auld Lang Syne

4 versions

TAB

            e|--------------------------------- ----- --------------------------------|
b|--------------------------------- ----- --------------------------------|
g|----2-2-2--6--4-2-4--6--2-2-6-9-11--9/11-9--6-6-2--4-2-4--6-2-----------|
d|-2--2-2-2--6--4-2-4--6--2-2-6-9-11--9/11-9--6-6-2--4-2-4--6-2--4-4-2--7-|
A|-2--0-0-0--4--2-0-2--4--0-0-4-7-9 --7/9 -7--4-4-0--2-0-2--4-0--4-4-2--7-|
E|-0------------------------------- ----- -----------------------2-2-0--5-|

e|---- --------------------- ----------- --- --------------------------------|
b|---- --------------------- ----------- --10--------------------------------|
g|-9/11-9--6-6-2--4-2-4--9/11-9--6-6-9-11--9 -9-6-6-2--4-2-4--6-2------------|
d|-9/11-9--6-6-2--4-2-4--9/11-9--6-6-9-11--7 -9-6-6-2--4-2-4--6-2--4-4-2--7~-|
A|-7/9 -7--4-4-0--2-0-2--7/9 -7--4-4-7-9 --- -7-4-4-0--2-0-2--4-0--4-4-2--7~-|
E|---- --------------------- ----------- --- ----------------------2-2-0--5~-|    

Added On December 16th, 2013

SHARE

Comments

blog comments powered by Disqus

VERSIONS

ADVERTISEMENT