Misc Traditional Tabs

Steigerlied

1 versions

TAB

            -------------------------------------------------------------------------------
                                   Misc Traditional - Steigerlied
-------------------------------------------------------------------------------
Tabbed by: AlessB

Standart Tuning

e|-----------------------------------------------------------------------------------------|
B|-----------------0-----1--0--------0-0-0-0---0-1----------0-1-1-1-0-1-3-0-0-0------------|
G|---0-----2--0-------2---------0-2----------2-----2-2--2-2--------------------------------|
D|------4----------------------------------------------------------------------------------|
A|-----------------------------------------------------------------------------------------|
E|-----------------------------------------------------------------------------------------|

e|-----------0-----------------------------------------------------------------------------|
B|---------0---3-1-0-----------------------------------------------------------------------|
G|---2-0-2------------2-0------------------------------------------------------------------|
D|-----------------------------------------------------------------------------------------|
A|-----------------------------------------------------------------------------------------|
E|-----------------------------------------------------------------------------------------|

repeat this a few times! Wiederhole es ein paar mal!    

Added On June 23rd, 2014

SHARE

Comments

blog comments powered by Disqus

ADVERTISEMENT