Misc Unsigned Bands Tabs

A Greater Evil - A Greater Evil

1 versions

TAB

            D|----------------------------|------------------------------------|___
A|----------------------------|------------------------------------|   |
F|----------------------------|-------------12p10p0-10p9p0---------|   |_X6
C|-0---\12--------------------|------------------------------------|   |
G|-0---\12----10p8p0-8p7p0----|------------------------------------|___|
C|-0---\12--------------------|------------------------------------|


D|-----------------------------------------------------------------------|
A|-----------------------------------------------------------------------|
F|-----------------------------------------------------------------------|
C|-0---------10p8p0--3\------------10p8p0--1\------------10p8p0--3\------|   
G|-0---------10p8p0--3\------------10p8p0--1\------------10p8p0--3\------|
C|-000000000-10p8p0--3\--000000000-10p8p0--1\--000000000-10p8p0--3\-0000-|


D|-----------------------------------------------------------------------|
A|-----------------------------------------------------------------------|
F|-----------------------------------------------------------------------|
C|--5--0--7--0--5h7--3--0------------------------------------------------|
G|--5--0--7--0--5h7--3--0------------------------------------------------|
C|--5--0--7--0--5h7--3--0------------------------------------------------|

It's not perfect but this is my first tab and hope that I did it good enough.    

Added On December 16th, 2013

SHARE

Comments

blog comments powered by Disqus

ADVERTISEMENT