Misc Unsigned Bands Tabs

Absence With Out Leave - The End Of Beginnings

1 versions

TAB

            This song was wrote by all the band in music and it was a great experience to perform it in class!

Intro
Guitar 1

E|-11-9-12-9-11-9-12-9-11-9-12-9-11-9-11--| x6
B|----------------------------------------| x6
G|----------------------------------------| x6
D|----------------------------------------| x6
A|----------------------------------------| x6
E|----------------------------------------| x6

Guitar 2

E|------------------------------------------------|
B|------------------------------------------------|
G|---------------4--------------------------------|
D|-------7-------4---------2----------2-----------|
A|-------7-------2---------2----------2-----------|
E|-------5-----------------0----------0-----------|

All played oger and over again!    

Added On December 16th, 2013

SHARE

Comments

blog comments powered by Disqus

ADVERTISEMENT