Misc Unsigned Bands Tabs

Atrishan - Chloroform Perfume

1 versions

TAB

            "This is basicly the whole song! Idk how the 'intro solo' or 'solo' goes
but this is as far as i got since its my tab! Enjoy :D"
                                                  -Davis

D|---------------------------------------------------------|
A|---------------------------------------------------------|
F|------4----4----4------------4----4----4-----------------|
C|---2----2----2----2-------2----2----2----2---------------|
G|--0-0--0-0--0-0--0-------0-0--0-0--0-0--0----------------|
D|-3----------------------3--------------------------------|

D|---------------------------------------------------------|
A|---------------------------------------------------------|
F|------0----0----0------------0----0----0-----------------|
C|---2----2----2----2-------2----2----2----2---------------|
G|--3-3--3-3--3-3--3-------3-3--3-3--3-3--3----------------|
D|-0----------------------0--------------------------------|    

Added On December 16th, 2013

SHARE

Comments

blog comments powered by Disqus

ADVERTISEMENT