Misc Unsigned Bands Tabs

Bboy Christian - Apart

1 versions

TAB

            Apart
by bboy christian

Verses- Em, C, G, D/F#
------------------------------------------------------------------------------|
-0-----0------0-----0--------1-----1-----1-----1-----3----3------3----3-------|
----0------0-----0------0------0------0-----0------0----2----2-----2-----2----|
------------------------------------------------------------------------------|
-----------------------------3-------3---3-------3----------------------------|
-0-------0----0-------0------------------------------3------3----3------3-----|

-----------------------------------------------------------------------------|
-3---3----3---3--------------------------------------------------------------|
---2----2---2------2---------------------------------------------------------|
-----------------------------------------------------------------------------|
-----------------------------------------------------------------------------|
-2-----2--2------2-----------------------------------------------------------|

For the bridge, it's the same picking pattern, but the chords are in different 
order: G, D/F#, Em, C

www.youtube.com/bboyxchristian    

Added On December 16th, 2013

SHARE

Comments

blog comments powered by Disqus

ADVERTISEMENT