Misc Unsigned Bands Tabs

Bert Weedon - China Doll

1 versions

TAB

            Bert Weedon
China Doll/Happy Times
standard tuning

I did this accurately to the best of my ability.  There are most likely places where it should be played 

with a slide instead of a hammer-on and vice versa.  There are most likely places where it should be played 

palm-muted instead of ringing and vice versa.  I'm 99% sure that all of the notes are correct.  Please 

correct this tab if you find mistakes to make it better.

e|----------------------------------------------------------------------------------
B|----------------------------------------------------------------------------------
G|----------------------------------------------------------------------------------
D|--/2----4--4--------/2-2-2-2-2--4--4---------/2----4--4---------------------------
A|--------------4-4---------------------4--4---------------2--2---/2-2-2-2-2--4--0--
E|----------------------------------------------------------------------------------

e|-------------------------------------------------------------------------------
B|--5----7--7---------5-5-5-5-5--7--7---------3h5---7--7-------------------------
G|--6----------6--6---6----------------6--6---------------4--4--/4-4-4-4-4--6\2--
D|--7-----------------7----------------------------------------------------------
A|-------------------------------------------------------------------------------
E|-------------------------------------------------------------------------------

   |___________________PM_________________|
e|------------------------------------------------4-5-7--5-4-5------5-4-----------/12--0--
B|--------5-6--5-----5---------5-6---5---5------6---------------7-------7h9-7-9-5---------
G|------7--------7-6---------7---------7-----/6-------------------------------------------
D|----7--------------------7--------------------------------------------------------------
A|--8--------------------8----------------------------------------------------------------
E|----------------------------------------------------------------------------------------

e|----------------------------------------------------------------------------------
B|----------------------------------------------------------------------------------
G|----------------------------------------------------------------------------------
D|--/2----4--4--------/2-2-2-2-2--4--4---------/2----4--4---------------------------
A|--------------4-4---------------------4--4---------------2--2---/2-2-2-2-2--4--0--
E|----------------------------------------------------------------------------------


e|--5-------5----12----10----10--12--9---
B|--5---5---5----12----10------------10--
G|--6-------6----13----11------------9---
D|--7------------------12----------------
A|---------------------------------------
E|---------------------------------------

                      |_____PM_____|                             |_____PM______|
e|--5--7--7-----------/5-5-5-5-5-10--7--------3--7--7-------------------------------
B|--5--------7--7-----------------------7--7--2---------5--5-----/5--5-5-5-5--7-----
G|--6-----------------------------------------2----------------------------------7--  x2
D|----------------------------------------------------------------------------------
A|----------------------------------------------------------------------------------
E|----------------------------------------------------------------------------------

                                                |___________________PM__________________|
e|--------5-6-5h6p5-----5--------5-6-5h6p5---5--------9-10-12--10-9-10-----10-9-9----9-----
B|------8-----------8-7--------8-----------8-------11------------------12---------12---10--
G|----7----------------------7------------------11-----------------------------------------
D|--8----------------------8---------------------------------------------------------------
A|-----------------------------------------------------------------------------------------
E|-----------------------------------------------------------------------------------------

e|------------------------------------------------------------
B|------------------------------------------------------------
G|------------------------------------------------------------
D|------------------------------------------------------------
A|--0----2--2---------0-0-0-0-0--2--2--------0----2--2--------
E|-------------2--2--------------------2--2-------------0--0--

e|-----------------------------------------------------------------7--
B|---------------------------------------------------------------7----
G|-------------------------------------------------------------7------
D|--/2-2-2-2-2--4--0----/2-2-2-2-2--4--0----/2-2-2-2-2--4----7--------
A|---------------------------------------------------------5----------
E|--------------------------------------------------------------------    

Added On June 21st, 2014

SHARE

Comments

blog comments powered by Disqus

ADVERTISEMENT