Misc Unsigned Bands Tabs

Bessemer - Beaten Down

1 versions

TAB

            -------------------------------------------------------------------------------
			     Beaten Down - Bessemer
-------------------------------------------------------------------------------
Tabbed by:Cool Britannia
Email:

Tuning:

e|-----------------------------------------------------------------------------------------------|
B|-----1-0---0-----------------------------------1-0---0-----------------------------------------|
G|---2-----2---2-0---2-0-----------------------2-----2---2-0---2-0-------0------0----------------|
D|-2---------------2-----2-0-2-2-0-2-0-------2---------------2-----2-0-2--2-0-2------------------|
A|-------------------------------------2---------------------------------------------------------|
E|-----------------------------------------------------------------------------------------------|

Am            C                Em   Am        C                    Em
kick down the walls around my soul, my lifes a game and you're the goal
Am            C                Em   Am        C                    Em
you found the life I tried to hide, you left me where the sun don't shine

C                    Em             Am
whisper that you'll catch me when I fall
C                    Em             G        
say you'll save me from the sirens call
C                    Em             Am
i fight for you, but live to please the crowd
C                    Em             G
won't you tell my story, tell them all how I was beaten down

(bridge)
Am  C  Em x2

Am            C                Em   Am        C                    Em
i staked a claim for futures past, and painted you a love that lasts
Am            C                Em   Am        C                    Em
is this the end of all that's been, the king is dead long live the queen

C                    Em             Am
whisper that you'll catch me when I fall
C                    Em             G        
say you'll save me from the sirens call
C                    Em             Am
i fight for you, but live to please the crowd
C                    Em             G
won't you tell my story, tell them all how I was beaten down

(outtro)
Am  C  Em x8    

Added On December 16th, 2013

SHARE

Comments

blog comments powered by Disqus

ADVERTISEMENT