Misc Unsigned Bands Tabs

Big John Khatt And The Highland Blues Band - Watermelon Man

1 versions

TAB

            Watermelon Man:Big John Khatt And The Highland
Blues Band..1963.

VERSES #1 & #2.
--------------------------------1-1-1---4-4-1--------------------|
--1-1-1----1--------------------1--------------------------------|
--------3----------0-2-------------------------------0-2---------|
-----------------------------------------------------------------|
-------------3-3-------3-----------------------3-3--------3------|
-----------------------------------------------------------------|

CHORUS:
-------------0-1-0-----------------------0-1-0--------------------|
----------3---------3-0-3-0----------3----------3-0-3-0-----------|
---0-0-0----------------------0-0-0-------------------------------|
------------------------------------------------------------------|
------------------------------------------------------------------|
------------------------------------------------------------------|


------------0-1-0--------------------------------------------------|
---------3---------3-0-3-0-----------------------------------------|
---0-0-0-----------------------------------------------------------|
-------------------------------------------------------------------|
---------------------------3---------------------------------------|
-------------------------------------------------------------------|

VERSES #1 & #2.
--------------------------------1-1-1---4-4-1--------------------|
--1-1-1----1--------------------1--------------------------------|
--------3----------0-2-------------------------------0-2---------|
-----------------------------------------------------------------|
-------------3-3-------3-----------------------3-3--------3------|
-----------------------------------------------------------------|

CHORUS:
-------------0-1-0-----------------------0-1-0--------------------|
----------3---------3-0-3-0----------3----------3-0-3-0-----------|
---0-0-0----------------------0-0-0-------------------------------|
------------------------------------------------------------------|
------------------------------------------------------------------|
------------------------------------------------------------------|


------------0-1-0--------------------------------------------------|
---------3---------3-0-3-0-----------------------------------------|
---0-0-0-----------------------------------------------------------|
-------------------------------------------------------------------|
---------------------------3---------------------------------------|
-------------------------------------------------------------------|


A sixties smash from Kraziekhat.    

Added On December 16th, 2013

SHARE

Comments

blog comments powered by Disqus

ADVERTISEMENT