Misc Unsigned Bands Tabs

Bjorn Lynne - Under The Bards Tree

1 versions

TAB

            -------------------------------------------------------------------------------
			    Under the Bard's Tree - Bjorn Lynne
-------------------------------------------------------------------------------

Midi file:   http://www.lynnemusic.com/midi/bjorn__lynne-_Under_The_Bards_Tree.mid
Intro:
E -------------------------------------------------------------------------------|
B ----------0-----------------------------------0--------1-----------------------|
G ----0--2-----2--0----0--2------------0-----2-----2--0-----2--0—0---------------|
D -0----------------3----------0--2—3----3---------------------------3--2--------|
A --------------------------------------------------------------------------2----|
E -------------------------------------------------------------------------------|

E -----------------------------------------------------------------------------|
B -------0------3-------------------0------------------------------------------|
G ----0----2--0---0-----0--2-----------2--0-----0—2----------------------------|
D -0-----------------3--------3--0-----------3--------3---0----------0--0------|
A ------------------------------------------------------------0--2-------------|
E -----------------------------------------------------------------------------|

(Intro repeats with some variation)

Part 1:
E -------------------------------------------------------0--------------------------------|
B -3--0----------1-------0-------------------------3--3-----3—0---------------------------|
G -------3--0—3-----2-------2---0-----0—2-------------------------2---0-----0---2--2------|
D ---------------------3-----------3-------3—0---------------------------3-------------0--|
A ----------------------------------------------------------------------------------------|
E ----------------------------------------------------------------------------------------|

E -----------------------------------------------------------0------------------------|
B -3--0-----------1--------0--------------------3--0------------0---------------------|
G -------2--0--2-----2--------2—0----0—2---------------2—0----------2-0---------0-----|
D ----------------------3---------3-------3—0----------------------------3-0-3--------|
A ------------------------------------------------------------------------------------|
E ------------------------------------------------------------------------------------|

Part 2:
E -----------------------------------------------------------------1---------------------|
B -----------------------------0--------------0---------0--0--1--3----1--0----0----------|
G -----------------------0—2---------------------2—0------------------------2----2—0-----|
D -0-------0—3—0-------------------3—0---------------------------------------------------|
A ----3—2----------3—2-------------------3—2---------------------------------------------|
E ---------------------------------------------------------------------------------------|    

Added On December 16th, 2013

SHARE

Comments

blog comments powered by Disqus

ADVERTISEMENT