Misc Unsigned Bands Tabs

Black Lungs - In Memory

3 versions

TAB

            black lungs - in memory
-----------------------
by Da Houza

Homepage: http://www.dinealonerecords.com 
myspace: http://www.myspace.com/dirtyblacklungs


Verse I/II (4x)
----------

E|--------------------------------------|-------------------------------------|
B|--------------------------------------|-------------------------------------|
G|--------------------------------------|--9--9----9-9-9---9-9--9-9-----------|
D|--11--11----11-11-11---11-11--11-11---|--9--9----9-9-9---9-9--9-9-----------|
A|--11--11----11-11-11---11-11--11-11---|--7--7----7-7-7---7-7--7-7-----------|
E|---9---9-----9--9--9----9--9---9--9---|-------------------------------------|  

E|--------------------------------------|-------------------------------------|
B|--------------------------------------|-------------------------------------|
G|--------------------------------------|--9--9----9-9-9---9-9--9-9-----------|
D|--7--7---7-7-7--9--9-9--9-9-9---------|--9--9----9-9-9---9-9--9-9-----------|
A|--7--7---7-7-7--9--9-9--9-9-9---------|--7--7----7-7-7---7-7--7-7-----------|
E|--5--5---5-5-5--7--7-7--7-7-7---------|-------------------------------------|


Chorus I (4x)
--------

E|--------------------------------------|-------------------------------------|
B|--------------------------------------|-------------------------------------|
G|--------------------------------------|-------------------------------------|
D|--11--11-11--11-11-11--9--9-9--9-9-9--|--7--7-7--7-7-7-7--7-7--7-7-7--------|
A|--11--11-11--11-11-11--9--9-9--9-9-9--|--7--7-7--7-7-7-7--7-7--7-7-7--------|
E|---9---9--9---9--9--9--7--7-7--7-7-7--|--5--5-5--5-5-5-5--5-5--5-5-5--------|


Verse III (2x)
---------

E|--------------------------------------|-------------------------------------|
B|--------------------------------------|-------------------------------------|
G|--------------------------------------|--9--9----9-9-9---9-9--9-9-----------|
D|--11--11----11-11-11---11-11--11-11---|--9--9----9-9-9---9-9--9-9-----------|
A|--11--11----11-11-11---11-11--11-11---|--7--7----7-7-7---7-7--7-7-----------|
E|---9---9-----9--9--9----9--9---9--9---|-------------------------------------|  

E|--------------------------------------|-------------------------------------|
B|--------------------------------------|-------------------------------------|
G|--------------------------------------|--9--9----9-9-9---9-9--9-9-----------|
D|--7--7---7-7-7--9--9-9--9-9-9---------|--9--9----9-9-9---9-9--9-9-----------|
A|--7--7---7-7-7--9--9-9--9-9-9---------|--7--7----7-7-7---7-7--7-7-----------|
E|--5--5---5-5-5--7--7-7--7-7-7---------|-------------------------------------|


Interlude I (2x)
-----------

E|--------------------------------------|-------------------------------------|
B|--------------------------------------|-------------------------------------|
G|--------------------------------------|-------------------------------------|
D|--11--11----11-11-11----11-11--11-11--|--7--7----7-7-7---7-7--7-7-----------|
A|--11--11----11-11-11----11-11--11-11--|--7--7----7-7-7---7-7--7-7-----------|
E|---9---9-----9--9--9-----9--9---9--9--|--5--5----5-5-5---5-5--5-5-----------|
 
E|--------------------------------------|-------------------------------------|
B|--------------------------------------|-------------------------------------|
G|--9--9----9-9-9---9-9--9-9------------|-------------------------------------|
D|--9--9----9-9-9---9-9--9-9------------|--9--9----9-9-9---9-9--9-9-----------|
A|--7--7----7-7-7---7-7--7-7------------|--9--9----9-9-9---9-9--9-9-----------|
E|--------------------------------------|--7--7----7-7-7---7-7--7-7-----------|


Interlude II (8x)
------------
 
E|--------------------------------------------------|
B|--------------------------------------------------|
G|--------------------------------------------------|
D|--------------7-----------------------9-----------|
A|--7--7--7--7--7--7--7--7--9--9--9--9--9--9--9--9--|
E|--5--5--5--5--5--5--5--5--7--7--7--7--7--7--7--7--|
   PM PM PM PM    PM PM PM PM PM PM PM    PM PM PM  

E|-------------------------------------------------------|
B|-------------------------------------------------------|
G|-------------------------------------------------------|
D|---------------11------------------------11------------|
A|--11-11-11-11--11--11-11-11-11-11-11-11--11--11-11-11--|
E|---9--9--9--9---9---9--9--9--9--9--9--9---9---9--9--9--|
    PM PM PM PM      PM PM PM PM PM PM PM      PM PM PM 

(4x)
(without palm mute)

E|--------------------------------------------------|
B|--------------------------------------------------|
G|--------------------------------------------------|
D|--------------7-----------------------9-----------|
A|--7--7--7--7--7--7--7--7--9--9--9--9--9--9--9--9--|
E|--5--5--5--5--5--5--5--5--7--7--7--7--7--7--7--7--|

E|-------------------------------------------------------|
B|-------------------------------------------------------|
G|-------------------------------------------------------|
D|---------------11------------------------11------------|
A|--11-11-11-11--11--11-11-11-11-11-11-11--11--11-11-11--|
E|---9--9--9--9---9---9--9--9--9--9--9--9---9---9--9--9--|

(4x)

E|--------------------------------------------------|
B|--------------------------------------------------|
G|--------------------------------------------------|
D|--7--7--7--7--7--7--7--7--9--9--9--9--9--9--9--9--|
A|--7--7--7--7--7--7--7--7--9--9--9--9--9--9--9--9--|
E|--5--5--5--5--5--5--5--5--7--7--7--7--7--7--7--7--|

E|-------------------------------------------------------|
B|-------------------------------------------------------|
G|-------------------------------------------------------|
D|--11-11-11-11--11--11-11-11-11-11-11-11--11--11-11-11--|
A|--11-11-11-11--11--11-11-11-11-11-11-11--11--11-11-11--|
E|---9--9--9--9---9---9--9--9--9--9--9--9---9---9--9--9--|


Chorus II (4x)
---------

E|--------------------------------------|-------------------------------------|
B|--------------------------------------|-------------------------------------|
G|--------------------------------------|-------------------------------------|
D|--11--11-11--11-11-11--9--9-9--9-9-9--|--7--7-7--7-7-7-7--7-7--7-7-7--------|
A|--11--11-11--11-11-11--9--9-9--9-9-9--|--7--7-7--7-7-7-7--7-7--7-7-7--------|
E|---9---9--9---9--9--9--7--7-7--7-7-7--|--5--5-5--5-5-5-5--5-5--5-5-5--------|

END
---    

Added On December 16th, 2013

SHARE

Comments

blog comments powered by Disqus

VERSIONS

ADVERTISEMENT