Misc Unsigned Bands Tabs

Black Territory - Its So Hard

1 versions

TAB

            this is a very nice intro taken from IT'S SO HARD song by a band called black 
territory from malaysia. this is my first tab so..... anyway, i'm not sure about 
this but it sound close enough

search them on facebook and myspace.

tuning : CGCFAD

 D||-----------------------------|--------------------|
 A||-----------------------------|--------------------|
 F||--------7-9-10-9----10-9-7---|-0---7-9-10-9-10----|
 C||------0----------------------|---7----------------|
 G||-----------------------------|--------------------|
 C||-----------------------------|--------------------|

   |-----------------------------|------------------------||
   |-----------------------------|------------------------||
   |--------7-9-10-9----10-9-7---|--0-5---7---9---10-9----||
   |------0----------------------|-------7---7------------||
   |-----------------------------|------------------------||
   |-----------------------------|------------------------||    

Added On December 16th, 2013

SHARE

Comments

blog comments powered by Disqus

ADVERTISEMENT