Misc Unsigned Bands Tabs

Blood On The Dance Floor - Miss Bipolar

1 versions

TAB

            Intro:
e]--3---------5---------5---------8---------|
b]--3---------5---------5---------8---------|
g]--3---------5---------5---------8---------|
d]--3---------5-7-(8x)--5---------8---------|
a]--3-5-(8x)--5---------5-7-(8x)--8-10------|(8x)
E]--3---------5---------5---------8---------|

Verse:
e]--3---------5---------5---------8--------|
b]--3---------5---------5---------8--------|
g]--3---------5---------5---------8--------|
d]--3---------5-7-------5---------8--------|
a]--3-5-------5---------5-7-------8-10-----|
E]--3---------5---------5---------8--------|
   You're a bitch.......You're a dick....


and the rest goes on and on with the same pattern    

Added On December 16th, 2013

SHARE

Comments

blog comments powered by Disqus

ADVERTISEMENT