Misc Unsigned Bands Tabs

Bobot Adrenaline - Penalty Box

2 versions

TAB

            Penalty Box - Bobot Adrenaline

Intro
e|---------------------------------------------------|
B|---------------------------------------------------|
G|-4/5554/5554/555-10-12-4/5554/5554/555-10-10-------|
D|-4/5554/5554/555-10-12-4/5554/5554/555-10-10-------| x2
A|-2/3332/3332/333-8--10-2/3332/3332/333-8--8--------|
E|---------------------------------------------------|


Verse
e|--33-3-3----33-3-3----33-3-3----33-3-3--------33-3-3-
B|--33-3-3----33-3-3----33-3-3----33-3-3--------33-3-3-
G|--55-5-5----55-5-5----55-5-5----55-5-5--------55-5-5-
D|--55-5-5-57-55-5-5-55-55-5-5-57-55-5-5-555333-55-5-5- (continued)
A|--33-3-3-57-33-3-3-55-33-3-3-57-33-3-3-555333-33-3-3-
E|--33-3-3-35-33-3-3-33-33-3-3-35-33-3-3-333111-33-3-3-

e|-----33-3-3----33-3-3----33-3-3----33-3-3----33-3-3----33-3-3-----|
B|-----33-3-3----33-3-3----33-3-3----33-3-3----33-3-3----33-3-3-----|
G|-----55-5-5----55-5-5----55-5-5----55-5-5----55-5-5----55-5-5-----|
D|--57-55-5-5-57-55-5-5-55-55-5-5-57-55-5-5-57-55-5-5-57-55-5-5-55--|
A|--57-33-3-3-57-33-3-3-55-33-3-3-57-33-3-3-57-33-3-3-57-33-3-3-55--|
E|--35-33-3-3-35-33-3-3-33-33-3-3-35-33-3-3-35-33-3-3-35-33-3-3-33--|

Bridge
e|-------------------------------------------------------------|
B|-------------------------------------------------------------|
G|--55552-99996-55552-99996-1111-9-----------------------------|
D|--55552-99996-55552-99996-1111-9-----------------------------|
A|--33330-77774-33330-77774-9-9--7-----------------------------|
E|-------------------------------------------------------------|


Chorus
e|-------------------------------------------------------|
B|-------------------------------------------------------|
G|--5555--------1010107775555----------------------------|x2
D|--5555555577771010107775555----------------------------|
A|--3333555577778-8-8-5553333----------------------------|
E|------33335555-----------------------------------------|

Solo
e|--------------------------------|
B|--875-764-53-0h2-0h2------------|
G|-5------------------------------|
D|--------------------------------|
A|--------------------------------|
E|--------------------------------|


Wierd interlude thing after solo
e|-------------------------------------|
B|-------------------------------------|
G|--555555----------555555-------------|
D|--5555555533333355555555-------------| x2
A|--3333335533333355333333-------------|
E|--------3311111133-------------------|



SONG ORDER
----------
Intro
Verse 
Bridge
Chorus
Intro
Verse
Bridge
Chorus
Solo
Wierd Thing
Intro
Interlude
Chorus
Intro

tabbed by jeremy v (rocky2476)    

Added On December 16th, 2013

SHARE

Comments

blog comments powered by Disqus

VERSIONS

ADVERTISEMENT