Misc Unsigned Bands Tabs

Born Of Osiris - Bow Down

2 versions

TAB

            ---------------------------------------------------------------------------
		          Bow Down - Born Of Osiris
---------------------------------------------------------------------------
Tabbed by:rockonmetal83 Steve =]
Email:therabbit99999@yahoo.com

Tuning: Drop C (C G C F A D)

http://www.myspace.com/bornofosiris


FUCKING BOW DOWN.

                                      x2
D|-------------------------------------|
A|-------------------------------------|
F|-------------------------------------|
C|---------------------------------2*--|
G|-032-1-032-1-032-1-032-1000321-0-----|
C|-032-1-032-1-032-1-032-1000321-0-----|
P.M... . ... . ... . ... ....... .

                                     x2
D|------------------------------------|
A|------------------------------------|
F|------------------------------------|
C|---------------------------------2*-|
G|-000-0-000-0-000-0-000-0000000-0----|
C|-000-0-000-0-000-0-000-0000000-0----|
P.M... . ... . ... . ... ....... .

                    x2
D|-------------------|
A|-------------------|
F|-------------------|
C|-------------------|
G|-00-0-0-00-0--00-0-|
C|-00-0-0-00-0--00-0-|
P.M.. . . .. .  .. .

                        This   goes right here tooooo
D|---------------------/-----\----------------------|------------------|
A|--------------------/-------\---------------------|------------------|
F|----7----8----5----/---------\------7----8----5-11|------------------|
C|----x----x----x---/-----------\-----x----x----x-x-|------------------|
G|----5----6----3----0-00-00-00-0-----5----6----3/9-V----6----6----6---|
C|-00---00---00---3--0-00-00-00-0--00---00---00-------00-5-00-5-00-5---|
P.M..   ..   ..      . .. .. .. .  ..   ..   ..       ..   ..   ..

D|--------------------|
A|--------------------|
F|--------------------|
C|--------------------|
G|----6----6----6-6-6-|
C|-00-3-00-3-00-3-3-3-|
P.M..   ..   ..   . .


Guitar 1
Add slight bends to elongated notes =]
D|-12---10-------------------------------------10-13-12-10-8---------------|
A|---------10---8------------------------10-12---------------8-10-10-12b---|
F|------------------------------10--10-12----------------------------------|
C|----------------8-10-10-10b^11-------------------------------------------|
G|-------------------------------------------------------------------------|
C|-------------------------------------------------------------------------|

D|-10h12p10----------------------------------------10h12p10----------------|
A|---------12-10-------------------------------------------12-10-----------|
F|--------------12-10-------------------------------------------12-10------|
C|-------------------12-10-10-12b------------10-10b------------------12-10-|
G|-------------------------------10-8-8-10-12------------------------------|
C|-------------------------------------------------------------------------|

D|-----------------|
A|-----------------|
F|-------9b--------|
C|-10-12b--10b~~~~-|
G|-----------------|
C|-----------------|


Guitar 2              x4                   x2
D|----------------------|--------------------|----|
A|----------------------|--------------------|----|
F|----------------------|--------------------|----|
C|----------------------|-7~----3~----5~-----|-0~-|
G|-00-0-0---00-0---00-0-|-7~----3~----5~-----|-0~-|
C|-00-0-0---00-0---00-0-|-7~----3~----5~-----|-0~-|
P.M.. . .   .. .   .. .

D|-----------------|
A|-----------------|
F|-----------------|
C|--------------5*-|
G|-000-000-000-0---|
C|-000-000-000-0---|
P.M... ... ... .


     x8 P.M. then 8 more times not palm muted.
D|-----|
A|-----|
F|-----|
C|-----|
G|-000-|
C|-000-|


D|----------------------------------|
A|----------------------------------|
F|----------------------------------|
C|-------------------------------5*-|
G|-000-00000-000-00000-000-0000-0---|
C|-000-00000-000-00000-000-0000-0---|
P.M... ..... ... ..... ... .... .

                                      x2
D|-------------------------------------|
A|-------------------------------------|
F|-------------------------------------|
C|---------------------------------2*--|
G|-032-1-032-1-032-1-032-1000321-0-----|
C|-032-1-032-1-032-1-032-1000321-0-----|
P.M... . ... . ... . ... ....... .

                                     x2
D|------------------------------------|
A|------------------------------------|
F|------------------------------------|
C|---------------------------------2*-|
G|-000-0-000-0-000-0-000-0000000-0----|
C|-000-0-000-0-000-0-000-0000000-0----|
P.M... . ... . ... . ... ....... .

                    x2
D|-------------------|
A|-------------------|
F|-------------------|
C|-------------------|
G|-00-0-0-00-0--00-0-|
C|-00-0-0-00-0--00-0-|
P.M.. . . .. .  .. .

                        This   goes right here tooooo
D|---------------------/-----\----------------------|------------------|
A|--------------------/-------\---------------------|------------------|
F|----7----8----5----/---------\------7----8----5-11|------------------|
C|----x----x----x---/-----------\-----x----x----x-x-|------------------|
G|----5----6----3----0-00-00-00-0-----5----6----3/9-V----6----6----6---|
C|-00---00---00---3--0-00-00-00-0--00---00---00-------00-5-00-5-00-5---|
P.M..   ..   ..      . .. .. .. .  ..   ..   ..       ..   ..   ..

D|--------------------|
A|--------------------|
F|--------------------|
C|--------------------|
G|----6----6----6-6-6-|
C|-00-3-00-3-00-3-3-3-|
P.M..   ..   ..   . .


END.    

Added On December 16th, 2013

SHARE

Comments

blog comments powered by Disqus

VERSIONS

ADVERTISEMENT