Misc Unsigned Bands Tabs

By Its Right Name - Wings Through The Fire

1 versions

TAB

            -------------------------------------------------------------------------------
	        Wings Through The Fire - By Its Right Name
-------------------------------------------------------------------------------

Tuning:Half-step down

Capo 3

Intro

e|---------------------------------------------------------------------------|
B|-----3h5p3-3---3h5p3-3---5-5-3-3-0---3h5p3-3-------------------------------|
G|--4-4----------------------------------------------------------------------|
D|------------5-5-------2-2---------5-5--------------------------------------|
A|---------------------------------------------------------------------------|
E|---------------------------------------------------------------------------|

e|---------------------------------------------------------------------------|
B|-----3h5p3-3---3h5p3-3---5-5-3-3-0-3~--------------------------------------|
G|--4-4----------------------------------------------------------------------|
D|------------5-5-------2-2----------5~--------------------------------------|
A|---------------------------------------------------------------------------|
E|---------------------------------------------------------------------------|

The instrumental before 2nd verse is same as intro

Instrumental/bridge lead

e|---------------------------------------------------------------------------|
B|--1-1-1b--3-3-3b--1-1-1b--5-5-5b--1-1-1b--3-3-3b-/8--8--8b-----------------|
G|--4-4-4b--6-6-6b--4-4-4b--8-8-8b--4-4-4b--6-6-6b-/11-11-11b----------------|
D|---------------------------------------------------------------------------|
A|---------------------------------------------------------------------------|
E|---------------------------------------------------------------------------|

Outro is the same as the intro



************************************

| /   slide up
| \   slide down
| h   hammer-on
| p   pull-off
| ~   vibrato
| +   harmonic
| x   Mute note
| b   Bend
| pb  Pre-bend
| br  Bend release
| pbr Pre-bend release
| brb Bend release bend

************************************    

Added On December 16th, 2013

SHARE

Comments

blog comments powered by Disqus

ADVERTISEMENT