Misc Unsigned Bands Tabs

Dear Juliet - If The Moon Fell Down Tonight

3 versions

TAB

            Intro
E----------0---0------0---------|
B---0--------0------------0-----|
G-------------------------------|
D-2-4h6-----------6-4-------6-4-|
A-------------------------------|
E-------------------------------|

Verse
E----------0---0------0--------------------0---0------0-----------|
B---0--------0------------0---------0--------0------------0-------|
G-----------------------------------------------------------------|
D-2-4h6-----------6-4-------6-4-------------------6-4-------6-4---|
A---------------------------------2-4h6---------------------------|
E-----------------------------------------------------------------|

E----------0---0------0--------------------0---0------0-----------|
B---0--------0------------0---------0--------0------------0-------|
G-----------------------------------------------------------------|
D---2h4-----------6-4-------6-4-------------------6-4-------6-4---|
A-6-------------------------------2-4h6---------------------------|
E-----------------------------------------------------------------|

Chorus
E-----00-------00-------00----000------|
B-----00-------00-------00----000------|
G-----22-------44-------22----222------|
D-----22-------44-------22----222------| x3
A--4--44----2--22----0--00----000------|
E--------------------------------------|    

Added On December 16th, 2013

SHARE

Comments

blog comments powered by Disqus