Misc Unsigned Bands Tabs

Dear Juliet - Lullaby

2 versions

TAB

            Alright, this is my first tab, so BEAR WITH ME! This is only one of the many amazing 
by Chase Coy!! It's a pretty easy song to play! hope you like it!
-Lindsey

e|--------------------------------|
B|--3---3---3---3---3---3---1---3-|
G|0--02--20--02--20--00--00--01--0|
D|-0---0---0---0---0---0---0---0--|
A|--------------------------------|
E|--------------------------------|


e|--------------------------------|
B|--3---3---3---3---3---3---1---3-|
G|0--02--20--02--20--00--00--01--0|
D|-0---0---0---0---0---0---0---0--|
A|--------------------------------|
E|--------------------------------|

you can rest easy tonight

e|--------------------------------|
B|--3---3---3---3---3---3---1---3-|
G|0--02--20--02--20--00--00--01--0|
D|-0---0---0---0---0---0---0---0--|
A|--------------------------------|
E|--------------------------------|

everything is gonna be alright, i promise

e|--------------------------------|
B|--3---3---3---3---3---3---1---3-|
G|0--02--20--02--20--00--00--01--0|
D|-0---0---0---0---0---0---0---0--|
A|--------------------------------|
E|--------------------------------|

Go to sleep and dream of me tonight

e|-------------------------------|
B|--3---3---3---3---3---3---1---1|
G|0--02--20--02--20--00--00--0---|
D|-0---0---0---0---0---0---0---0-|
A|-------------------------------|
E|-------------------------------|

Everything may not be perfect but at least we try

e|---|
B|--1|
G|-0-|
D|1--|
A|---|
E|---|

So tonight

Cadd9                     G
Sweet dreams, and sleep tight

~*CHORUS*~

         Cadd9
Ive been trying so hard,

              D
cant get you out of my mind

       Cadd9
And if this is how it has to be

        G
Just promise you wont forget me


    Cadd9      D              Cadd9 x2
And ill leave you with this lullaby


e|1|\
B|0| \
G|3|  \
D|0|  / X2
A|-| /
E|-|/
Tonight


e|--------------------------------|\--- \
B|--3---3---3---3---3---3---1---3-|---- \
G|0--02--20--02--20--00--00--01--0| --- \
D|-0---0---0---0---0---0---0---0--| --- \ X2
A|------------------------------------- \ /
E|------------------------------------- \


Repeat the same pattern as the first verse.


i know that this hurts you, it hurts me too
i wish there was something i could do to make it easier for you
sometimes it's tough, too soon to call it love but i wanted to
yeah i wanted to, but it's too late now to say all the wonderful things that i thought of you.
So tonight sweet dreams, and sleep tight

~*Chorus*~

play this slower, youll get it when you listen to the music:
e|-------------------------------|
B|--3---3---3---3---3---3---1---1|
G|0--02--20--02--20--00--00--0---|
D|-0---0---0---0---0---0---0---0-|
A|-------------------------------|
E|-------------------------------|    

Added On December 16th, 2013

SHARE

Comments

blog comments powered by Disqus

VERSIONS

ADVERTISEMENT