Misc Unsigned Bands Tabs

Decibel - Naagin

2 versions

TAB

            -------------------------------------------------------------------------------
			     Naagin - Decibel
-------------------------------------------------------------------------------
Tabbed by:kaust
Email:testube.95@yahoo.com

Tuning:Standard

e|-----------0-0----------------0-0------------------------------------------|
B|-----0-0-2-----4-2-0----0-0-2-----4-2-0---2-3-2-0--2-3-2-0-----------------|
G|---------------------------------------------------------------------------|
D|---------------------------------------------------------------------------|
A|---------------------------------------------------------------------------|
E|---------------------------------------------------------------------------|

e|---------------------------------------------------------------------------|
B|-2-2-2-2--0-0-2-2-3-3-2-2-0-0-0-0-0-0-0-0---2-0-3-3-2-2-0-0-2-0-3-3-2-2-0-0|
G|---------------------------------------------------------------------------|
D|---------------------------------------------------------------------------|
A|---------------------------------------------------------------------------|
E|---------------------------------------------------------------------------|

e|------------0----0------------0--------------------------------------------|
B|-9-7-10-7-9---10---9-7-10-7-9---10-----------------------------------------|
G|---------------------------------------------------------------------------|
D|---------------------------------------------------------------------------|
A|---------------------------------------------------------------------------|
E|---------------------------------------------------------------------------|



| /  slide up
| \  slide down
| h  hammer-on
| p  pull-off
| ~  vibrato
| +  harmonic
| x  Mute note
===============================================================================    

Added On December 16th, 2013

SHARE

Comments

blog comments powered by Disqus

VERSIONS

ADVERTISEMENT