Misc Unsigned Bands Tabs

Diggy Simmons - Click Clack Away

1 versions

TAB

            -------------------------------------------------------------------------------
			                Click Clack Away - Diggy Simmons f. Bruno Mars
-------------------------------------------------------------------------------
Tabbed by: NJ992 (Neeraj Venkatraman)
Email: neeraj.venkatraman@gmail.com

Tuning:

e|-3---------------3-------------------3-----------------3------------------|
B|-----4----1----4------4----1--4-----------3---------3-------3-------3-----|
G|-----------------------------------------------3-----------------3--------|
D|--------------------------------------------------------------------------|
A|--------------------------------------------------------------------------|
E|--------------------------------------------------------------------------|


e|-3---------------3-------------------1-----------------1------------------|
B|-----4----1----4------4----1--4-----------4----1----4-------4----1--4-----|
G|--------------------------------------------------------------------------|
D|--------------------------------------------------------------------------|
A|--------------------------------------------------------------------------|
E|--------------------------------------------------------------------------|

the progression repeats for the whole song.



That's all of the piano part :) first tab ! 

any corrections / comments / concerns would be great to post. 

************************************

| /   slide up
| \   slide down
| h   hammer-on
| p   pull-off
| ~   vibrato
| +   harmonic
| x   Mute note
| b   Bend
| pb  Pre-bend
| br  Bend release
| pbr Pre-bend release
| brb Bend release bend

************************************    

Added On December 16th, 2013

SHARE

Comments

blog comments powered by Disqus

ADVERTISEMENT