Misc Unsigned Bands Tabs

Faceless - This Life I Have Intro

2 versions

TAB

            My band is called Faceless, and we wrote this song, so here's the intro, and i hope you like it.

|------------|--------|----------|--------|-----------|
|------------|--------|----------|--------|-----------|
|------------|--------|----------|--------|-----------|  X4
|---2-2-0-2-0|--------|2-2-0-2-0-|--------|-----------|
|---2-2-0-2-0|--------|2-2-0-2-0-|--------|-----------|
|------------|3-2-0--2|----------|3-2-0-2-|3-2-0-2----|

                   THEN...

|-------------|----------|
|-------------|----------|
|-------------|----------|
|---2-2-0-2-0-|2-3-5-2---|
|---2-2-0-2-0-|2-3-5-2---|
|-------------|----------|    

Added On December 16th, 2013

SHARE

Comments

blog comments powered by Disqus

VERSIONS

ADVERTISEMENT