Misc Unsigned Bands Tabs

First Last Never Ending - Shadow There For You

1 versions

TAB

            Alright guys this song is called Shadow(There For You) and is in Eb.

Verse one-
Guitar 1&2 play the same thing. 
These are 8th notes. 
eb------------------------------------------------------------------|
Bb------------------------------------------------------------------|
Gb-----------------------------------5-5-5-5-5-5-5-5-7-7-7-7-7-7-7-7|
Db---7-7-7-7-7-7-7-7-5-5-5-5-5-5-5-5-3-3-3-3-3-3-3-3-5-5-5-5-5-5-5-5|
Ab---5-5-5-5-5-5-5-5-3-3-3-3-3-3-3-3--------------------------------|
Eb------------------------------------------------------------------|
                       Play verse eight times...

Chorus-
Guitar 1&2 play the same thing
eb-------------------------------------------|
Bb-------------------------------------------|
Gb-------------------------------------------|
Db---9--9-9-9-9-9--7--7-7-7-7-7--5--5-5-5-5-5|
Ab---7--7-7-7-7-7--5--5-5-5-5-5--3--3-3-3-3-3|
Eb---7--7-7-7-7-7--5--5-5-5-5-5--3--3-3-3-3-3|
            *Play chorus eight times*
       On the Second time play the last chord as eight notes
       On the last time strum last chord thirteen times
            
Verse Two-
Guitar 1&2 play the same thing 
eb-------------------------|
Bb-------------------------|
Gb-------------------------|
Db---------------------7-9-|
Ab------7-9-8-5-----7-9----|
Eb---7-9---------7-9-------|
    Play verse two six times.
Guitar one does a solo that i can't tab out because he

changes it every time. I'll get one tabbed out asap. Guitar Two

plays verse one and after the solo guitar one joins in.      

eb------------------------------------------------------------------|
Bb------------------------------------------------------------------|
Gb-----------------------------------5-5-5-5-5-5-5-5-7-7-7-7-7-7-7-7|
Db---7-7-7-7-7-7-7-7-5-5-5-5-5-5-5-5-3-3-3-3-3-3-3-3-5-5-5-5-5-5-5-5|
Ab---5-5-5-5-5-5-5-5-3-3-3-3-3-3-3-3--------------------------------|
Eb------------------------------------------------------------------| 
Play this riff six times. *On the last time take the last chord
slowly, then strum the first one last time.



       And Thats all of it.    

Added On December 16th, 2013

SHARE

Comments

blog comments powered by Disqus

ADVERTISEMENT