Misc Unsigned Bands Tabs

Freddie Phillips - Trumpton Theme

1 versions

TAB

            Trumpton theme by Freddie Phillips

Tabbed by spope

e|-----------0---------|-----------0---------| 
B|-------1-------1-----|-------1-------1-----| 
G|-----0---0---0---0---|-----0---0---0---0---| 
D|---------------------|---------------------| 
A|--3------------------|--3------------------| 
E|---------------------|---------------------| 


e|-----------1---------|-----------0---------| 
B|-------0-------0-----|-------1-------1-----| 
G|-----0---0---0---0---|-----0---0---0---0---| 
D|---------------------|---------------------| 
A|---------------------|--3------------------| 
E|--3------------------|---------------------| 


e|---------------------|---------0-----------| 
B|--------------1------|-----1-3---3-1-------| 
G|-----0--2--0---------|---------------------| 
D|---------------------|---------------------| 
A|--3------------------|--3------------------| 
E|---------------------|---------------------| 


e|--------0--1--0------|---------0-----------| 
B|-----3-----------3---|-----1-3---3-1-------| 
G|---------------------|---------------------| 
D|---------------------|---------------------| 
A|---------------------|--3------------------| 
E|--3------------------|---------------------| 


e|-----------0---------|---------0-----------| 
B|---------------------|-----1-3---3-1-------| 
G|-----2-3-2-----------|---------------------| 
D|---------------------|--0------------------| 
A|--0------------------|---------------------| 
E|---------------------|---------------------| 


e|--------0--1--0------|-----------0--h1-----| 
B|-----3-----------3---|-----0-1-3-------h3--| 
G|---------------------|---------------------| 
D|---------------------|---------------------| 
A|---------------------|---------------------| 
E|--3------------------|--3------------------| 

repeat...    

Added On December 16th, 2013

SHARE

Comments

blog comments powered by Disqus

ADVERTISEMENT