Misc Unsigned Bands Tabs

Jens And Rikard - Disposal Of The Body

1 versions

TAB

            Disposal of the fucking body (in E major)                               


                                     Original by Cannibal Corpse 
                                     Rearranged by Jens And Rikard

Tablature Legend
----------------
PM - palm mute
TP - tremolo picking
AH - artificial harmonic
h - hammer on
p - pull off
b - bend
/ -  slide into from below or out of upwards
\ -  slide into from above or out of downwards
~ - vibrato
T - tapping
|-n-|  -n- tuplets (note duration)



Intro:
    
E||------------------------|-------------------------||
B||------------------------|-------------------------||
G||------------------------|------------------------*||
D||------------------------|------------------------*||
A||------------------------|-------------2-----------||
E||--4---2---0--5---4---2--|--4---2---0------4---2---||







Pre Verse and Verse:


------------------------------------------------------|
------------------------------------------------------|
------------------------------------------------------|
------------------------------------------------------|
--11-7-7-7-7-7-11-7-7-7-7-7-11-7-7-7-7-7-11-7-7-7-7-7-|
------------------------------------------------------|


-------------------------------------------------------------|
-------------------------------------------------------------|
-------------------------------------------------------------|
-------------------------------------------------------------|
--11-7-7-7-7-7-11-7-7-7-7-7-11-7-7-7-7-7-9h-12p-9-11h-14p-11-|
-------------------------------------------------------------|


------------------------------------------------------|
------------------------------------------------------|
------------------------------------------------------|
------------------------------------------------------|
--11-7-7-7-7-7-11-7-7-7-7-7-11-7-7-7-7-7-11-7-7-7-7-7-|
------------------------------------------------------|


-------------------------------------------------------------|
-------------------------------------------------------------|
-------------------------------------------------------------|
----------------------------6h-9p-6-7h-11p-7-6h-9p-6-4h-7p-4-|
--11-7-7-7-7-7-11-7-7-7-7-7----------------------------------|
-------------------------------------------------------------|


------------------------------------------------------|
------------------------------------------------------|
------------------------------------------------------|
------------------------------------------------------|
--11-7-7-7-7-7-11-7-7-7-7-7-11-7-7-7-7-7-11-7-7-7-7-7-|
------------------------------------------------------|

 
---------------------------------------------------------------------|
---------------------------------------------------------------------|
---------------------------------------------------------------------|
--6h-9p-6-7h-11p-7-6h-9p-6-7h-11p-7-6h-9p-6-7h-11p-7-6h-9p-6-4h-7p-4-|
---------------------------------------------------------------------|
---------------------------------------------------------------------|

 
------------------------------------------------------|
------------------------------------------------------|
------------------------------------------------------|
------------------------------------------------------|
--11-7-7-7-7-7-11-7-7-7-7-7-11-7-7-7-7-7-11-7-7-7-7-7-|
------------------------------------------------------|


  |------5------| |------5------| |-----5-----| |-----5-----| 
--------------------------------------------------------------|
--------------------------------------------------------------|
--------------------------------------------------------------|
--9h-13p-9h-13p-9-7h-11p-7h-11p-7-6h-9p-6h-9p-6-4h-7p-4h-7p-4-|    

Added On December 16th, 2013

SHARE

Comments

blog comments powered by Disqus

ADVERTISEMENT