Misc Unsigned Bands Tabs

Jonathan Rhys Meyers - This Time

5 versions

TAB

            This is a song from August Rush, and I couldn't find any good tabs for it on here, so I 
to tab it myself.  I'm 99% sure that this is correct.
Questions, comments, and ratings are appreciated.

Intro:

|------0-0-0--0-0-0-0---------|
|------0-0-0--0-0-0-0---------|
|------7-7-7--0-0-0-0---------|  Play 4 times through
|------7-7-7--5-5-5-5---------|
|-5-5--5-5-5--5-5-5-5---------|
|-0-0---------3-3-3-3---------|
         ^ ^
         These two are are an upward strum

Verse 1:

|------0-0-0--0-0-0-0---------|
|------0-0-0--0-0-0-0---------|
|------7-7-7--0-0-0-0---------|
|------7-7-7--5-5-5-5---------|
|-5-5--5-5-5--5-5-5-5---------|
|-0-0---------3-3-3-3---------|

" Tonight       the sky .. "

|------0-0-0--0-0-0-0---------|
|------0-0-0--0-0-0-0---------|
|------7-7-7--0-0-0-0---------|
|------7-7-7--5-5-5-5---------|
|-5-5--5-5-5--5-5-5-5---------|
|-0-0---------3-3-3-3---------|

"Above         ....        "

|------0-0-0--0-0-0-0-0-0-0-0-|
|------0-0-0--0-0-0-0-0-0-0-0-|
|------7-7-7--0-0-0-0-7-7-7-7-|
|------7-7-7--5-5-5-5-7-7-7-7-|
|-5-5--5-5-5--5-5-5-5-5-5-5-5-|
|-0-0---------3-3-3-3---------|

"Reminds me of your love.."

|-0-0-0-----------0-0-0-0-0---|
|-0-0-0-----------0-0-0-0-0---|
|-7-7-7-----------3-3-3-3-3---|
|-7-7-7-----------4-4-4-4-4---|
|-5-5-5-----------4-4-4-4-4---|
|-----------------2-2-2-2-2---|

"Walking through wintertime..."

|--0-0-0--|
|--0-0-0--|
|--7-7-7--|
|--7-7-7--|
|--5-5-5--|
|---------|

"Where the stars all shine."

|------0-0-0--0-0-0-0---------|
|------0-0-0--0-0-0-0---------|
|------7-7-7--0-0-0-0---------|
|------7-7-7--5-5-5-5---------|
|-5-5--5-5-5--5-5-5-5---------|
|-0-0---------3-3-3-3---------|

           ------

|------0-0-0--0-0-0-0---------|
|------0-0-0--0-0-0-0---------|
|------7-7-7--0-0-0-0---------|
|------7-7-7--5-5-5-5---------|
|-5-5--5-5-5--5-5-5-5---------|
|-0-0---------3-3-3-3---------|

" The angel   on the ...    "

|------0-0-0--0-0-0-0---------|
|------0-0-0--0-0-0-0---------|
|------7-7-7--0-0-0-0---------|
|------7-7-7--5-5-5-5---------|
|-5-5--5-5-5--5-5-5-5---------|
|-0-0---------3-3-3-3---------|

"Stairs         ....        "

|------0-0-0--0-0-0-0-0-0-0-0-|
|------0-0-0--0-0-0-0-0-0-0-0-|
|------7-7-7--0-0-0-0-7-7-7-7-|
|------7-7-7--5-5-5-5-7-7-7-7-|
|-5-5--5-5-5--5-5-5-5-5-5-5-5-|
|-0-0---------3-3-3-3---------|

"Will tell    you I was there.."

|-0-0-0-----------0-0-0-0-0---|
|-0-0-0-----------0-0-0-0-0---|
|-7-7-7-----------3-3-3-3-3---|
|-7-7-7-----------4-4-4-4-4---|
|-5-5-5-----------4-4-4-4-4---|
|-----------------2-2-2-2-2---|

"Under the        front porch light..."

|--0-0-0--|
|--0-0-0--|
|--7-7-7--|
|--7-7-7--|
|--5-5-5--|
|---------|

"On a mystery night."

|-0-0-0-/-0-0-0-/-0----0------------|
|-0-0-0-/-0-0-0-/-0-----------------|
|-3-3-3-/-4-4-4-/-6--6---6----------|
|-4-4-4-/-5-5-5-/-7-----------------|
|-4-4-4-/-5-5-5-/-7-----------------|
|-2-2-2-/-3-3-3-/-5-----------------|
      ^       ^
      These two are an upward strum


Chorus:

|------0-0-0-0-0-0-0-0-0-0-0-|
|------0-0-0-0-0-0-0-0-0-0-0-|
|------0-0-0-0-0-0-0-7-7-7-7-|
|------5-5-5-5-5-5-5-7-7-7-7-|
|-5-5--5-5-5-5-5-5-5-5-5-5-5-|
|-3-3--3-3-3-3-3-3-3---------|

"I've been sitting watching life
pass from the sidelines.."

|------0-0-0-0-0-0-0-0-0-0-0-|
|------0-0-0-0-0-0-0-0-0-0-0-|
|------0-0-0-0-0-0-0-3-3-3-3-|
|------5-5-5-5-5-5-5-4-4-4-4-|
|-5-5--5-5-5-5-5-5-5-4-4-4-4-|
|-3-3--3-3-3-3-3-3-3-2-2-2-2-|

"Been waiting for a dream to seep
in through my blinds.."

|------0-0-0-0-0-0-0-0-0-0-0-|
|------0-0-0-0-0-0-0-0-0-0-0-|
|------0-0-0-0-0-0-0-7-7-7-7-|
|------5-5-5-5-5-5-5-7-7-7-7-|
|-5-5--5-5-5-5-5-5-5-5-5-5-5-|
|-3-3--3-3-3-3-3-3-3---------|

"I wondered what might happen
if I left this all behind.."

|------0-0-0-0-0-0-0---------|
|------0-0-0-0-0-0-0---------|
|------2-2-2-2-2-2-2---------|
|------2-2-2-2-2-2-2---------|
|-0-0--0-0-0-0-0-0-0---------|
|-0-0--0-0-0-0-0-0-0---------|

"Would the wind be at my back.."

|-0-0-0-/-0-0-0-/-0--|
|-0-0-0-/-0-0-0-/-0--|
|-3-3-3-/-4-4-4-/-6--|
|-4-4-4-/-5-5-5-/-7--|
|-4-4-4-/-5-5-5-/-7--|
|-2-2-2-/-3-3-3-/-5--|

" Could I get you off my mind.."

MUTE:  "This time.."

And there you have it, that's how the whole song goes.  The next verse goes like:

"The neon lights in bars
And headlights from the cars
Have started a symphony
Inside of me
The things I left behind
Have melted in my mind
And now there's a purity
Inside of me"

Then you repeat the chorus part twice.

Enjoy! :]    

Added On December 16th, 2013

SHARE

Comments

blog comments powered by Disqus